ISO-10303-21;
HEADER;
FILE_DESCRIPTION (( 'STEP AP203' ),
    '1' );
FILE_NAME ('Web Model 49634.STEP',
    '2017-01-31T15:23:24',
    ( '' ),
    ( '' ),
    'SwSTEP 2.0',
    'SolidWorks 2016',
    '' );
FILE_SCHEMA (( 'CONFIG_CONTROL_DESIGN' ));
ENDSEC;

DATA;
#1 = CARTESIAN_POINT ( 'NONE',  ( -17.50000000000000000, 17.50000000000000000, 3.000000000000000000 ) ) ;
#2 =( NAMED_UNIT ( * ) SI_UNIT ( $, .STERADIAN. ) SOLID_ANGLE_UNIT ( ) );
#3 = APPROVAL_STATUS ( 'not_yet_approved' ) ;
#4 = CC_DESIGN_APPROVAL ( #50, ( #9 ) ) ;
#5 = EDGE_CURVE ( 'NONE', #53, #92, #101, .T. ) ;
#6 = ORIENTED_EDGE ( 'NONE', *, *, #109, .F. ) ;
#7 = VERTEX_POINT ( 'NONE', #142 ) ;
#8 = ORIENTED_EDGE ( 'NONE', *, *, #70, .T. ) ;
#9 = PRODUCT_DEFINITION ( 'UNKNOWN', '', #111, #13 ) ;
#10 = CARTESIAN_POINT ( 'NONE',  ( -17.50000000000000000, 17.50000000000000000, 3.000000000000000000 ) ) ;
#11 = AXIS2_PLACEMENT_3D ( 'NONE', #51, #26, #28 ) ;
#12 = CALENDAR_DATE ( 2017, 31, 1 ) ;
#13 = DESIGN_CONTEXT ( 'detailed design', #99, 'design' ) ;
#14 = EDGE_CURVE ( 'NONE', #157, #53, #216, .T. ) ;
#15 = APPROVAL_DATE_TIME ( #68, #50 ) ;
#16 = CARTESIAN_POINT ( 'NONE',  ( -17.50000000000000000, -17.50000000000000000, 0.0000000000000000000 ) ) ;
#17 = CARTESIAN_POINT ( 'NONE',  ( -17.50000000000000000, -17.50000000000000000, 0.0000000000000000000 ) ) ;
#18 = LINE ( 'NONE', #182, #72 ) ;
#19 = ADVANCED_FACE ( 'NONE', ( #226 ), #174, .F. ) ;
#20 = PERSON_AND_ORGANIZATION_ROLE ( 'creator' ) ;
#21 = DATE_TIME_ROLE ( 'classification_date' ) ;
#22 = LOCAL_TIME ( 10, 23, 24.00000000000000000, #120 ) ;
#23 = ADVANCED_BREP_SHAPE_REPRESENTATION ( 'Web Model 49634', ( #190, #150 ), #77 ) ;
#24 = VERTEX_POINT ( 'NONE', #29 ) ;
#25 = CARTESIAN_POINT ( 'NONE',  ( 17.50000000000000000, 17.50000000000000000, 0.0000000000000000000 ) ) ;
#26 = DIRECTION ( 'NONE',  ( 1.000000000000000000, 0.0000000000000000000, -0.0000000000000000000 ) ) ;
#27 = PERSON_AND_ORGANIZATION ( #209, #139 ) ;
#28 = DIRECTION ( 'NONE',  ( -0.0000000000000000000, 0.0000000000000000000, -1.000000000000000000 ) ) ;
#29 = CARTESIAN_POINT ( 'NONE',  ( -17.50000000000000000, 17.50000000000000000, 0.0000000000000000000 ) ) ;
#30 = VECTOR ( 'NONE', #132, 1000.000000000000000 ) ;
#31 = LINE ( 'NONE', #163, #108 ) ;
#32 = LINE ( 'NONE', #105, #74 ) ;
#33 = EDGE_LOOP ( 'NONE', ( #193, #231, #73, #144 ) ) ;
#34 = PERSON_AND_ORGANIZATION ( #209, #139 ) ;
#35 = LINE ( 'NONE', #78, #76 ) ;
#36 = ORIENTED_EDGE ( 'NONE', *, *, #70, .F. ) ;
#37 = CARTESIAN_POINT ( 'NONE',  ( -17.50000000000000000, -17.50000000000000000, 3.000000000000000000 ) ) ;
#38 = DIRECTION ( 'NONE',  ( -0.0000000000000000000, 0.0000000000000000000, 1.000000000000000000 ) ) ;
#39 = EDGE_CURVE ( 'NONE', #200, #194, #147, .T. ) ;
#40 = CARTESIAN_POINT ( 'NONE',  ( 17.50000000000000000, 17.50000000000000000, 3.000000000000000000 ) ) ;
#41 = APPROVAL_STATUS ( 'not_yet_approved' ) ;
#42 = PERSON_AND_ORGANIZATION_ROLE ( 'creator' ) ;
#43 = ADVANCED_FACE ( 'NONE', ( #88 ), #104, .F. ) ;
#44 = APPLICATION_CONTEXT ( 'configuration controlled 3d designs of mechanical parts and assemblies' ) ;
#45 = COORDINATED_UNIVERSAL_TIME_OFFSET ( 5, 0, .BEHIND. ) ;
#46 = DIRECTION ( 'NONE',  ( 1.000000000000000000, 0.0000000000000000000, 0.0000000000000000000 ) ) ;
#47 = CARTESIAN_POINT ( 'NONE',  ( -17.50000000000000000, 17.50000000000000000, 3.000000000000000000 ) ) ;
#48 = ORIENTED_EDGE ( 'NONE', *, *, #65, .F. ) ;
#49 = ORIENTED_EDGE ( 'NONE', *, *, #54, .F. ) ;
#50 = APPROVAL ( #3, 'UNSPECIFIED' ) ;
#51 = CARTESIAN_POINT ( 'NONE',  ( -17.50000000000000000, 17.50000000000000000, 3.000000000000000000 ) ) ;
#52 = COORDINATED_UNIVERSAL_TIME_OFFSET ( 5, 0, .BEHIND. ) ;
#53 = VERTEX_POINT ( 'NONE', #141 ) ;
#54 = EDGE_CURVE ( 'NONE', #137, #200, #195, .T. ) ;
#55 = EDGE_CURVE ( 'NONE', #7, #137, #32, .T. ) ;
#56 = DIRECTION ( 'NONE',  ( 0.0000000000000000000, -1.000000000000000000, 0.0000000000000000000 ) ) ;
#57 = ORIENTED_EDGE ( 'NONE', *, *, #39, .F. ) ;
#58 = DIRECTION ( 'NONE',  ( 0.0000000000000000000, -1.000000000000000000, 0.0000000000000000000 ) ) ;
#59 = CC_DESIGN_APPROVAL ( #160, ( #111 ) ) ;
#60 = DIRECTION ( 'NONE',  ( 0.0000000000000000000, 0.0000000000000000000, 1.000000000000000000 ) ) ;
#61 = ADVANCED_FACE ( 'NONE', ( #118 ), #228, .T. ) ;
#62 = PERSON_AND_ORGANIZATION_ROLE ( 'design_owner' ) ;
#63 = ORIENTED_EDGE ( 'NONE', *, *, #39, .T. ) ;
#64 = PERSON_AND_ORGANIZATION ( #209, #139 ) ;
#65 = EDGE_CURVE ( 'NONE', #92, #7, #31, .T. ) ;
#66 = DIRECTION ( 'NONE',  ( -0.0000000000000000000, 1.000000000000000000, -0.0000000000000000000 ) ) ;
#67 = DIRECTION ( 'NONE',  ( -0.0000000000000000000, 0.0000000000000000000, 1.000000000000000000 ) ) ;
#68 = DATE_AND_TIME ( #212, #22 ) ;
#69 = FACE_OUTER_BOUND ( 'NONE', #184, .T. ) ;
#70 = EDGE_CURVE ( 'NONE', #194, #24, #18, .T. ) ;
#71 = CC_DESIGN_PERSON_AND_ORGANIZATION_ASSIGNMENT ( #179, #203, ( #111 ) ) ;
#72 = VECTOR ( 'NONE', #116, 1000.000000000000000 ) ;
#73 = ORIENTED_EDGE ( 'NONE', *, *, #119, .F. ) ;
#74 = VECTOR ( 'NONE', #213, 1000.000000000000000 ) ;
#75 = LOCAL_TIME ( 10, 23, 24.00000000000000000, #126 ) ;
#76 = VECTOR ( 'NONE', #202, 1000.000000000000000 ) ;
#77 =( GEOMETRIC_REPRESENTATION_CONTEXT ( 3 ) GLOBAL_UNCERTAINTY_ASSIGNED_CONTEXT ( ( #112 ) ) GLOBAL_UNIT_ASSIGNED_CONTEXT ( ( #220, #79, #2 ) ) REPRESENTATION_CONTEXT ( 'NONE', 'WORKASPACE' ) );
#78 = CARTESIAN_POINT ( 'NONE',  ( 17.50000000000000000, 17.50000000000000000, 3.000000000000000000 ) ) ;
#79 =( NAMED_UNIT ( * ) PLANE_ANGLE_UNIT ( ) SI_UNIT ( $, .RADIAN. ) );
#80 = CARTESIAN_POINT ( 'NONE',  ( 17.50000000000000000, -17.50000000000000000, 3.000000000000000000 ) ) ;
#81 = ORIENTED_EDGE ( 'NONE', *, *, #55, .F. ) ;
#82 = APPROVAL_DATE_TIME ( #166, #134 ) ;
#83 = APPLICATION_PROTOCOL_DEFINITION ( 'international standard', 'config_control_design', 1994, #99 ) ;
#84 = APPLICATION_PROTOCOL_DEFINITION ( 'international standard', 'config_control_design', 1994, #44 ) ;
#85 = EDGE_CURVE ( 'NONE', #92, #24, #177, .T. ) ;
#86 = APPROVAL_PERSON_ORGANIZATION ( #175, #134, #183 ) ;
#87 = DATE_AND_TIME ( #169, #130 ) ;
#88 = FACE_OUTER_BOUND ( 'NONE', #33, .T. ) ;
#89 = DIRECTION ( 'NONE',  ( 0.0000000000000000000, 1.000000000000000000, 0.0000000000000000000 ) ) ;
#90 = AXIS2_PLACEMENT_3D ( 'NONE', #47, #56, #95 ) ;
#91 = LINE ( 'NONE', #236, #143 ) ;
#92 = VERTEX_POINT ( 'NONE', #1 ) ;
#93 = PERSON_AND_ORGANIZATION ( #209, #139 ) ;
#94 = EDGE_CURVE ( 'NONE', #157, #200, #115, .T. ) ;
#95 = DIRECTION ( 'NONE',  ( 0.0000000000000000000, -0.0000000000000000000, -1.000000000000000000 ) ) ;
#96 = ORIENTED_EDGE ( 'NONE', *, *, #5, .F. ) ;
#97 = CARTESIAN_POINT ( 'NONE',  ( 17.50000000000000000, -17.50000000000000000, 3.000000000000000000 ) ) ;
#98 = CC_DESIGN_PERSON_AND_ORGANIZATION_ASSIGNMENT ( #93, #133, ( #158 ) ) ;
#99 = APPLICATION_CONTEXT ( 'configuration controlled 3d designs of mechanical parts and assemblies' ) ;
#100 = DATE_AND_TIME ( #233, #208 ) ;
#101 = LINE ( 'NONE', #10, #196 ) ;
#102 = EDGE_LOOP ( 'NONE', ( #210, #36, #57, #49 ) ) ;
#103 = CARTESIAN_POINT ( 'NONE',  ( -17.50000000000000000, -17.50000000000000000, 0.0000000000000000000 ) ) ;
#104 = PLANE ( 'NONE',  #224 ) ;
#105 = CARTESIAN_POINT ( 'NONE',  ( -17.50000000000000000, -17.50000000000000000, 3.000000000000000000 ) ) ;
#106 = ORIENTED_EDGE ( 'NONE', *, *, #14, .T. ) ;
#107 = EDGE_LOOP ( 'NONE', ( #63, #6, #189, #227 ) ) ;
#108 = VECTOR ( 'NONE', #201, 1000.000000000000000 ) ;
#109 = EDGE_CURVE ( 'NONE', #53, #194, #35, .T. ) ;
#110 = VECTOR ( 'NONE', #185, 1000.000000000000000 ) ;
#111 = PRODUCT_DEFINITION_FORMATION_WITH_SPECIFIED_SOURCE ( 'ANY', '', #172, .NOT_KNOWN. ) ;
#112 = UNCERTAINTY_MEASURE_WITH_UNIT (LENGTH_MEASURE( 1.000000000000000100E-005 ), #220, 'distance_accuracy_value', 'NONE');
#113 = DIRECTION ( 'NONE',  ( 0.0000000000000000000, 0.0000000000000000000, 1.000000000000000000 ) ) ;
#114 = CC_DESIGN_DATE_AND_TIME_ASSIGNMENT ( #229, #154, ( #9 ) ) ;
#115 = LINE ( 'NONE', #80, #110 ) ;
#116 = DIRECTION ( 'NONE',  ( -1.000000000000000000, -0.0000000000000000000, -0.0000000000000000000 ) ) ;
#117 = MECHANICAL_CONTEXT ( 'NONE', #44, 'mechanical' ) ;
#118 = FACE_OUTER_BOUND ( 'NONE', #129, .T. ) ;
#119 = EDGE_CURVE ( 'NONE', #7, #157, #192, .T. ) ;
#120 = COORDINATED_UNIVERSAL_TIME_OFFSET ( 5, 0, .BEHIND. ) ;
#121 = VECTOR ( 'NONE', #66, 1000.000000000000000 ) ;
#122 = EDGE_CURVE ( 'NONE', #24, #137, #91, .T. ) ;
#123 = CC_DESIGN_DATE_AND_TIME_ASSIGNMENT ( #87, #21, ( #158 ) ) ;
#124 = VECTOR ( 'NONE', #176, 1000.000000000000000 ) ;
#125 = ORIENTED_EDGE ( 'NONE', *, *, #119, .T. ) ;
#126 = COORDINATED_UNIVERSAL_TIME_OFFSET ( 5, 0, .BEHIND. ) ;
#127 = CC_DESIGN_PERSON_AND_ORGANIZATION_ASSIGNMENT ( #27, #20, ( #9 ) ) ;
#128 = FACE_OUTER_BOUND ( 'NONE', #102, .T. ) ;
#129 = EDGE_LOOP ( 'NONE', ( #178, #125, #106, #214 ) ) ;
#130 = LOCAL_TIME ( 10, 23, 24.00000000000000000, #136 ) ;
#131 = PLANE ( 'NONE',  #234 ) ;
#132 = DIRECTION ( 'NONE',  ( -0.0000000000000000000, -0.0000000000000000000, -1.000000000000000000 ) ) ;
#133 = PERSON_AND_ORGANIZATION_ROLE ( 'classification_officer' ) ;
#134 = APPROVAL ( #168, 'UNSPECIFIED' ) ;
#135 = APPROVAL_ROLE ( '' ) ;
#136 = COORDINATED_UNIVERSAL_TIME_OFFSET ( 5, 0, .BEHIND. ) ;
#137 = VERTEX_POINT ( 'NONE', #16 ) ;
#138 = ORIENTED_EDGE ( 'NONE', *, *, #85, .F. ) ;
#139 = ORGANIZATION ( 'UNSPECIFIED', 'UNSPECIFIED', '' ) ;
#140 = DIRECTION ( 'NONE',  ( -1.000000000000000000, -0.0000000000000000000, -0.0000000000000000000 ) ) ;
#141 = CARTESIAN_POINT ( 'NONE',  ( 17.50000000000000000, 17.50000000000000000, 3.000000000000000000 ) ) ;
#142 = CARTESIAN_POINT ( 'NONE',  ( -17.50000000000000000, -17.50000000000000000, 3.000000000000000000 ) ) ;
#143 = VECTOR ( 'NONE', #58, 1000.000000000000000 ) ;
#144 = ORIENTED_EDGE ( 'NONE', *, *, #55, .T. ) ;
#145 = CC_DESIGN_APPROVAL ( #134, ( #158 ) ) ;
#146 = PERSON_AND_ORGANIZATION ( #209, #139 ) ;
#147 = LINE ( 'NONE', #25, #121 ) ;
#148 = DIRECTION ( 'NONE',  ( 1.000000000000000000, 0.0000000000000000000, 0.0000000000000000000 ) ) ;
#149 = PRODUCT_RELATED_PRODUCT_CATEGORY ( 'detail', '', ( #172 ) ) ;
#150 = AXIS2_PLACEMENT_3D ( 'NONE', #205, #60, #221 ) ;
#151 = VECTOR ( 'NONE', #217, 1000.000000000000000 ) ;
#152 = PLANE ( 'NONE',  #197 ) ;
#153 = PRODUCT_DEFINITION_SHAPE ( 'NONE', 'NONE',  #9 ) ;
#154 = DATE_TIME_ROLE ( 'creation_date' ) ;
#155 = SHAPE_DEFINITION_REPRESENTATION ( #153, #23 ) ;
#156 = LOCAL_TIME ( 10, 23, 24.00000000000000000, #45 ) ;
#157 = VERTEX_POINT ( 'NONE', #97 ) ;
#158 = SECURITY_CLASSIFICATION ( '', '', #167 ) ;
#159 = CARTESIAN_POINT ( 'NONE',  ( 17.50000000000000000, 17.50000000000000000, 3.000000000000000000 ) ) ;
#160 = APPROVAL ( #41, 'UNSPECIFIED' ) ;
#161 = AXIS2_PLACEMENT_3D ( 'NONE', #230, #67, #148 ) ;
#162 = CALENDAR_DATE ( 2017, 31, 1 ) ;
#163 = CARTESIAN_POINT ( 'NONE',  ( -17.50000000000000000, 17.50000000000000000, 3.000000000000000000 ) ) ;
#164 = CC_DESIGN_SECURITY_CLASSIFICATION ( #158, ( #111 ) ) ;
#165 = ORIENTED_EDGE ( 'NONE', *, *, #109, .T. ) ;
#166 = DATE_AND_TIME ( #162, #75 ) ;
#167 = SECURITY_CLASSIFICATION_LEVEL ( 'unclassified' ) ;
#168 = APPROVAL_STATUS ( 'not_yet_approved' ) ;
#169 = CALENDAR_DATE ( 2017, 31, 1 ) ;
#170 = VECTOR ( 'NONE', #211, 1000.000000000000000 ) ;
#171 = ORIENTED_EDGE ( 'NONE', *, *, #85, .T. ) ;
#172 = PRODUCT ( 'Web Model 49634', 'Web Model 49634', '', ( #117 ) ) ;
#173 = CARTESIAN_POINT ( 'NONE',  ( -17.50000000000000000, -17.50000000000000000, 3.000000000000000000 ) ) ;
#174 = PLANE ( 'NONE',  #11 ) ;
#175 = PERSON_AND_ORGANIZATION ( #209, #139 ) ;
#176 = DIRECTION ( 'NONE',  ( 1.000000000000000000, 0.0000000000000000000, 0.0000000000000000000 ) ) ;
#177 = LINE ( 'NONE', #199, #30 ) ;
#178 = ORIENTED_EDGE ( 'NONE', *, *, #65, .T. ) ;
#179 = PERSON_AND_ORGANIZATION ( #209, #139 ) ;
#180 = CARTESIAN_POINT ( 'NONE',  ( 17.50000000000000000, -17.50000000000000000, 0.0000000000000000000 ) ) ;
#181 = CC_DESIGN_PERSON_AND_ORGANIZATION_ASSIGNMENT ( #222, #42, ( #111 ) ) ;
#182 = CARTESIAN_POINT ( 'NONE',  ( -17.50000000000000000, 17.50000000000000000, 0.0000000000000000000 ) ) ;
#183 = APPROVAL_ROLE ( '' ) ;
#184 = EDGE_LOOP ( 'NONE', ( #8, #138, #96, #165 ) ) ;
#185 = DIRECTION ( 'NONE',  ( -0.0000000000000000000, -0.0000000000000000000, -1.000000000000000000 ) ) ;
#186 = APPROVAL_PERSON_ORGANIZATION ( #64, #50, #135 ) ;
#187 = ADVANCED_FACE ( 'NONE', ( #225 ), #152, .F. ) ;
#188 = APPROVAL_ROLE ( '' ) ;
#189 = ORIENTED_EDGE ( 'NONE', *, *, #14, .F. ) ;
#190 = MANIFOLD_SOLID_BREP ( 'Extrude1', #235 ) ;
#191 = DIRECTION ( 'NONE',  ( 0.0000000000000000000, -0.0000000000000000000, 1.000000000000000000 ) ) ;
#192 = LINE ( 'NONE', #37, #151 ) ;
#193 = ORIENTED_EDGE ( 'NONE', *, *, #54, .T. ) ;
#194 = VERTEX_POINT ( 'NONE', #237 ) ;
#195 = LINE ( 'NONE', #103, #124 ) ;
#196 = VECTOR ( 'NONE', #140, 1000.000000000000000 ) ;
#197 = AXIS2_PLACEMENT_3D ( 'NONE', #40, #218, #113 ) ;
#198 = APPROVAL_DATE_TIME ( #100, #160 ) ;
#199 = CARTESIAN_POINT ( 'NONE',  ( -17.50000000000000000, 17.50000000000000000, 3.000000000000000000 ) ) ;
#200 = VERTEX_POINT ( 'NONE', #180 ) ;
#201 = DIRECTION ( 'NONE',  ( 0.0000000000000000000, -1.000000000000000000, 0.0000000000000000000 ) ) ;
#202 = DIRECTION ( 'NONE',  ( -0.0000000000000000000, -0.0000000000000000000, -1.000000000000000000 ) ) ;
#203 = PERSON_AND_ORGANIZATION_ROLE ( 'design_supplier' ) ;
#204 = CC_DESIGN_PERSON_AND_ORGANIZATION_ASSIGNMENT ( #146, #62, ( #172 ) ) ;
#205 = CARTESIAN_POINT ( 'NONE',  ( 0.0000000000000000000, 0.0000000000000000000, 0.0000000000000000000 ) ) ;
#206 = ADVANCED_FACE ( 'NONE', ( #128 ), #131, .F. ) ;
#207 = PLANE ( 'NONE',  #90 ) ;
#208 = LOCAL_TIME ( 10, 23, 24.00000000000000000, #52 ) ;
#209 = PERSON ( 'UNSPECIFIED', 'UNSPECIFIED', 'UNSPECIFIED', ('UNSPECIFIED'), ('UNSPECIFIED'), ('UNSPECIFIED') ) ;
#210 = ORIENTED_EDGE ( 'NONE', *, *, #122, .F. ) ;
#211 = DIRECTION ( 'NONE',  ( -0.0000000000000000000, 1.000000000000000000, -0.0000000000000000000 ) ) ;
#212 = CALENDAR_DATE ( 2017, 31, 1 ) ;
#213 = DIRECTION ( 'NONE',  ( -0.0000000000000000000, -0.0000000000000000000, -1.000000000000000000 ) ) ;
#214 = ORIENTED_EDGE ( 'NONE', *, *, #5, .T. ) ;
#215 = APPROVAL_PERSON_ORGANIZATION ( #34, #160, #188 ) ;
#216 = LINE ( 'NONE', #159, #170 ) ;
#217 = DIRECTION ( 'NONE',  ( 1.000000000000000000, 0.0000000000000000000, 0.0000000000000000000 ) ) ;
#218 = DIRECTION ( 'NONE',  ( -1.000000000000000000, 0.0000000000000000000, 0.0000000000000000000 ) ) ;
#219 = EDGE_LOOP ( 'NONE', ( #232, #81, #48, #171 ) ) ;
#220 =( LENGTH_UNIT ( ) NAMED_UNIT ( * ) SI_UNIT ( .MILLI., .METRE. ) );
#221 = DIRECTION ( 'NONE',  ( 1.000000000000000000, 0.0000000000000000000, 0.0000000000000000000 ) ) ;
#222 = PERSON_AND_ORGANIZATION ( #209, #139 ) ;
#223 = ADVANCED_FACE ( 'NONE', ( #69 ), #207, .F. ) ;
#224 = AXIS2_PLACEMENT_3D ( 'NONE', #173, #89, #191 ) ;
#225 = FACE_OUTER_BOUND ( 'NONE', #107, .T. ) ;
#226 = FACE_OUTER_BOUND ( 'NONE', #219, .T. ) ;
#227 = ORIENTED_EDGE ( 'NONE', *, *, #94, .T. ) ;
#228 = PLANE ( 'NONE',  #161 ) ;
#229 = DATE_AND_TIME ( #12, #156 ) ;
#230 = CARTESIAN_POINT ( 'NONE',  ( -17.50000000000000000, -17.50000000000000000, 3.000000000000000000 ) ) ;
#231 = ORIENTED_EDGE ( 'NONE', *, *, #94, .F. ) ;
#232 = ORIENTED_EDGE ( 'NONE', *, *, #122, .T. ) ;
#233 = CALENDAR_DATE ( 2017, 31, 1 ) ;
#234 = AXIS2_PLACEMENT_3D ( 'NONE', #17, #38, #46 ) ;
#235 = CLOSED_SHELL ( 'NONE', ( #19, #43, #187, #223, #61, #206 ) ) ;
#236 = CARTESIAN_POINT ( 'NONE',  ( -17.50000000000000000, 17.50000000000000000, 0.0000000000000000000 ) ) ;
#237 = CARTESIAN_POINT ( 'NONE',  ( 17.50000000000000000, 17.50000000000000000, 0.0000000000000000000 ) ) ;
ENDSEC;
END-ISO-10303-21;
