ISO-10303-21;
HEADER;
FILE_DESCRIPTION (( 'STEP AP203' ),
    '1' );
FILE_NAME ('Web Model 66192.STEP',
    '2017-01-31T19:35:20',
    ( '' ),
    ( '' ),
    'SwSTEP 2.0',
    'SolidWorks 2016',
    '' );
FILE_SCHEMA (( 'CONFIG_CONTROL_DESIGN' ));
ENDSEC;

DATA;
#1 = COORDINATED_UNIVERSAL_TIME_OFFSET ( 5, 0, .BEHIND. ) ;
#2 = DATE_AND_TIME ( #29, #166 ) ;
#3 = LOCAL_TIME ( 14, 35, 20.00000000000000000, #147 ) ;
#4 = PLANE ( 'NONE',  #6 ) ;
#5 = DIRECTION ( 'NONE',  ( 0.0000000000000000000, 0.0000000000000000000, 1.000000000000000000 ) ) ;
#6 = AXIS2_PLACEMENT_3D ( 'NONE', #146, #64, #76 ) ;
#7 = CYLINDRICAL_SURFACE ( 'NONE', #159, 2.499999999999998700 ) ;
#8 = EDGE_CURVE ( 'NONE', #145, #113, #42, .T. ) ;
#9 = ADVANCED_FACE ( 'NONE', ( #170 ), #130, .F. ) ;
#10 = CALENDAR_DATE ( 2017, 31, 1 ) ;
#11 = ORGANIZATION ( 'UNSPECIFIED', 'UNSPECIFIED', '' ) ;
#12 = PERSON_AND_ORGANIZATION_ROLE ( 'classification_officer' ) ;
#13 = APPROVAL_STATUS ( 'not_yet_approved' ) ;
#14 = COORDINATED_UNIVERSAL_TIME_OFFSET ( 5, 0, .BEHIND. ) ;
#15 = AXIS2_PLACEMENT_3D ( 'NONE', #31, #62, #175 ) ;
#16 = DIRECTION ( 'NONE',  ( 0.0000000000000000000, 0.0000000000000000000, 1.000000000000000000 ) ) ;
#17 = FACE_OUTER_BOUND ( 'NONE', #27, .T. ) ;
#18 = DIRECTION ( 'NONE',  ( 1.000000000000000000, 0.0000000000000000000, -0.0000000000000000000 ) ) ;
#19 = VECTOR ( 'NONE', #158, 1000.000000000000000 ) ;
#20 = APPROVAL ( #151, 'UNSPECIFIED' ) ;
#21 =( LENGTH_UNIT ( ) NAMED_UNIT ( * ) SI_UNIT ( .MILLI., .METRE. ) );
#22 = MANIFOLD_SOLID_BREP ( 'Extrude1', #167 ) ;
#23 = EDGE_LOOP ( 'NONE', ( #123, #162, #73, #174 ) ) ;
#24 =( GEOMETRIC_REPRESENTATION_CONTEXT ( 3 ) GLOBAL_UNCERTAINTY_ASSIGNED_CONTEXT ( ( #168 ) ) GLOBAL_UNIT_ASSIGNED_CONTEXT ( ( #21, #68, #160 ) ) REPRESENTATION_CONTEXT ( 'NONE', 'WORKASPACE' ) );
#25 = EDGE_LOOP ( 'NONE', ( #71, #128 ) ) ;
#26 = APPROVAL_PERSON_ORGANIZATION ( #53, #20, #112 ) ;
#27 = EDGE_LOOP ( 'NONE', ( #85, #105, #119, #100 ) ) ;
#28 = CARTESIAN_POINT ( 'NONE',  ( -2.499999999999998700, 0.0000000000000000000, 0.0000000000000000000 ) ) ;
#29 = CALENDAR_DATE ( 2017, 31, 1 ) ;
#30 = APPROVAL ( #70, 'UNSPECIFIED' ) ;
#31 = CARTESIAN_POINT ( 'NONE',  ( 0.0000000000000000000, 0.0000000000000000000, 0.0000000000000000000 ) ) ;
#32 = CARTESIAN_POINT ( 'NONE',  ( -2.499999999999998700, 0.0000000000000000000, 0.2000000000000000100 ) ) ;
#33 = APPLICATION_PROTOCOL_DEFINITION ( 'international standard', 'config_control_design', 1994, #80 ) ;
#34 = CALENDAR_DATE ( 2017, 31, 1 ) ;
#35 = AXIS2_PLACEMENT_3D ( 'NONE', #106, #47, #169 ) ;
#36 = ADVANCED_FACE ( 'NONE', ( #82 ), #150, .T. ) ;
#37 = PERSON_AND_ORGANIZATION_ROLE ( 'creator' ) ;
#38 = FACE_OUTER_BOUND ( 'NONE', #25, .T. ) ;
#39 = PRODUCT ( 'Web Model 66192', 'Web Model 66192', '', ( #107 ) ) ;
#40 = CALENDAR_DATE ( 2017, 31, 1 ) ;
#41 = CC_DESIGN_PERSON_AND_ORGANIZATION_ASSIGNMENT ( #138, #49, ( #57 ) ) ;
#42 = LINE ( 'NONE', #91, #94 ) ;
#43 = PERSON ( 'UNSPECIFIED', 'UNSPECIFIED', 'UNSPECIFIED', ('UNSPECIFIED'), ('UNSPECIFIED'), ('UNSPECIFIED') ) ;
#44 = CARTESIAN_POINT ( 'NONE',  ( 0.0000000000000000000, 0.0000000000000000000, 0.2000000000000000100 ) ) ;
#45 = DIRECTION ( 'NONE',  ( 0.0000000000000000000, 0.0000000000000000000, 1.000000000000000000 ) ) ;
#46 = AXIS2_PLACEMENT_3D ( 'NONE', #127, #45, #134 ) ;
#47 = DIRECTION ( 'NONE',  ( 0.0000000000000000000, 0.0000000000000000000, 1.000000000000000000 ) ) ;
#48 = AXIS2_PLACEMENT_3D ( 'NONE', #78, #16, #18 ) ;
#49 = PERSON_AND_ORGANIZATION_ROLE ( 'creator' ) ;
#50 = PERSON_AND_ORGANIZATION ( #43, #11 ) ;
#51 = VERTEX_POINT ( 'NONE', #102 ) ;
#52 = APPLICATION_CONTEXT ( 'configuration controlled 3d designs of mechanical parts and assemblies' ) ;
#53 = PERSON_AND_ORGANIZATION ( #43, #11 ) ;
#54 = DATE_AND_TIME ( #40, #92 ) ;
#55 = DATE_TIME_ROLE ( 'classification_date' ) ;
#56 = APPROVAL_ROLE ( '' ) ;
#57 = PRODUCT_DEFINITION ( 'UNKNOWN', '', #125, #136 ) ;
#58 = DATE_TIME_ROLE ( 'creation_date' ) ;
#59 = AXIS2_PLACEMENT_3D ( 'NONE', #118, #115, #66 ) ;
#60 = CIRCLE ( 'NONE', #35, 2.499999999999998700 ) ;
#61 = CC_DESIGN_DATE_AND_TIME_ASSIGNMENT ( #54, #55, ( #129 ) ) ;
#62 = DIRECTION ( 'NONE',  ( 0.0000000000000000000, 0.0000000000000000000, 1.000000000000000000 ) ) ;
#63 = EDGE_LOOP ( 'NONE', ( #108, #74 ) ) ;
#64 = DIRECTION ( 'NONE',  ( 0.0000000000000000000, 0.0000000000000000000, 1.000000000000000000 ) ) ;
#65 = CARTESIAN_POINT ( 'NONE',  ( 0.0000000000000000000, 0.0000000000000000000, 0.2000000000000000100 ) ) ;
#66 = DIRECTION ( 'NONE',  ( -1.000000000000000000, 0.0000000000000000000, 0.0000000000000000000 ) ) ;
#67 = CIRCLE ( 'NONE', #15, 2.499999999999998700 ) ;
#68 =( NAMED_UNIT ( * ) PLANE_ANGLE_UNIT ( ) SI_UNIT ( $, .RADIAN. ) );
#69 = EDGE_CURVE ( 'NONE', #139, #145, #60, .T. ) ;
#70 = APPROVAL_STATUS ( 'not_yet_approved' ) ;
#71 = ORIENTED_EDGE ( 'NONE', *, *, #89, .T. ) ;
#72 = COORDINATED_UNIVERSAL_TIME_OFFSET ( 5, 0, .BEHIND. ) ;
#73 = ORIENTED_EDGE ( 'NONE', *, *, #8, .T. ) ;
#74 = ORIENTED_EDGE ( 'NONE', *, *, #171, .F. ) ;
#75 = PERSON_AND_ORGANIZATION ( #43, #11 ) ;
#76 = DIRECTION ( 'NONE',  ( 1.000000000000000000, 0.0000000000000000000, -0.0000000000000000000 ) ) ;
#77 = CC_DESIGN_APPROVAL ( #30, ( #57 ) ) ;
#78 = CARTESIAN_POINT ( 'NONE',  ( 0.0000000000000000000, 0.0000000000000000000, 0.0000000000000000000 ) ) ;
#79 = CARTESIAN_POINT ( 'NONE',  ( 2.499999999999998700, 3.061616997868381700E-016, 0.2000000000000000100 ) ) ;
#80 = APPLICATION_CONTEXT ( 'configuration controlled 3d designs of mechanical parts and assemblies' ) ;
#81 = DATE_AND_TIME ( #10, #161 ) ;
#82 = FACE_OUTER_BOUND ( 'NONE', #23, .T. ) ;
#83 = DATE_AND_TIME ( #104, #84 ) ;
#84 = LOCAL_TIME ( 14, 35, 20.00000000000000000, #1 ) ;
#85 = ORIENTED_EDGE ( 'NONE', *, *, #69, .F. ) ;
#86 = DIRECTION ( 'NONE',  ( -0.0000000000000000000, -0.0000000000000000000, -1.000000000000000000 ) ) ;
#87 = DIRECTION ( 'NONE',  ( 1.000000000000000000, 0.0000000000000000000, 0.0000000000000000000 ) ) ;
#88 = COORDINATED_UNIVERSAL_TIME_OFFSET ( 5, 0, .BEHIND. ) ;
#89 = EDGE_CURVE ( 'NONE', #145, #139, #132, .T. ) ;
#90 = CC_DESIGN_PERSON_AND_ORGANIZATION_ASSIGNMENT ( #75, #12, ( #129 ) ) ;
#91 = CARTESIAN_POINT ( 'NONE',  ( -2.499999999999998700, 0.0000000000000000000, 0.2000000000000000100 ) ) ;
#92 = LOCAL_TIME ( 14, 35, 20.00000000000000000, #72 ) ;
#93 = ADVANCED_BREP_SHAPE_REPRESENTATION ( 'Web Model 66192', ( #22, #46 ), #24 ) ;
#94 = VECTOR ( 'NONE', #86, 1000.000000000000000 ) ;
#95 = APPROVAL ( #13, 'UNSPECIFIED' ) ;
#96 = AXIS2_PLACEMENT_3D ( 'NONE', #101, #5, #87 ) ;
#97 = ADVANCED_FACE ( 'NONE', ( #17 ), #7, .T. ) ;
#98 = PERSON_AND_ORGANIZATION ( #43, #11 ) ;
#99 = APPROVAL_DATE_TIME ( #81, #95 ) ;
#100 = ORIENTED_EDGE ( 'NONE', *, *, #8, .F. ) ;
#101 = CARTESIAN_POINT ( 'NONE',  ( 0.0000000000000000000, 0.0000000000000000000, 0.0000000000000000000 ) ) ;
#102 = CARTESIAN_POINT ( 'NONE',  ( 2.499999999999998700, 3.061616997868381700E-016, 0.0000000000000000000 ) ) ;
#103 = CC_DESIGN_APPROVAL ( #95, ( #129 ) ) ;
#104 = CALENDAR_DATE ( 2017, 31, 1 ) ;
#105 = ORIENTED_EDGE ( 'NONE', *, *, #137, .T. ) ;
#106 = CARTESIAN_POINT ( 'NONE',  ( 0.0000000000000000000, 0.0000000000000000000, 0.2000000000000000100 ) ) ;
#107 = MECHANICAL_CONTEXT ( 'NONE', #80, 'mechanical' ) ;
#108 = ORIENTED_EDGE ( 'NONE', *, *, #154, .F. ) ;
#109 = DATE_AND_TIME ( #34, #3 ) ;
#110 = CIRCLE ( 'NONE', #96, 2.499999999999998700 ) ;
#111 = PERSON_AND_ORGANIZATION ( #43, #11 ) ;
#112 = APPROVAL_ROLE ( '' ) ;
#113 = VERTEX_POINT ( 'NONE', #28 ) ;
#114 = CC_DESIGN_PERSON_AND_ORGANIZATION_ASSIGNMENT ( #155, #163, ( #39 ) ) ;
#115 = DIRECTION ( 'NONE',  ( -0.0000000000000000000, -0.0000000000000000000, -1.000000000000000000 ) ) ;
#116 = DIRECTION ( 'NONE',  ( 0.0000000000000000000, 0.0000000000000000000, 1.000000000000000000 ) ) ;
#117 = DIRECTION ( 'NONE',  ( -0.0000000000000000000, -0.0000000000000000000, -1.000000000000000000 ) ) ;
#118 = CARTESIAN_POINT ( 'NONE',  ( 0.0000000000000000000, 0.0000000000000000000, 0.2000000000000000100 ) ) ;
#119 = ORIENTED_EDGE ( 'NONE', *, *, #171, .T. ) ;
#120 = ADVANCED_FACE ( 'NONE', ( #38 ), #4, .T. ) ;
#121 = APPROVAL_DATE_TIME ( #83, #20 ) ;
#122 = CC_DESIGN_SECURITY_CLASSIFICATION ( #129, ( #125 ) ) ;
#123 = ORIENTED_EDGE ( 'NONE', *, *, #137, .F. ) ;
#124 = SECURITY_CLASSIFICATION_LEVEL ( 'unclassified' ) ;
#125 = PRODUCT_DEFINITION_FORMATION_WITH_SPECIFIED_SOURCE ( 'ANY', '', #39, .NOT_KNOWN. ) ;
#126 = PERSON_AND_ORGANIZATION ( #43, #11 ) ;
#127 = CARTESIAN_POINT ( 'NONE',  ( 0.0000000000000000000, 0.0000000000000000000, 0.0000000000000000000 ) ) ;
#128 = ORIENTED_EDGE ( 'NONE', *, *, #69, .T. ) ;
#129 = SECURITY_CLASSIFICATION ( '', '', #124 ) ;
#130 = PLANE ( 'NONE',  #48 ) ;
#131 = DIRECTION ( 'NONE',  ( 1.000000000000000000, 0.0000000000000000000, 0.0000000000000000000 ) ) ;
#132 = CIRCLE ( 'NONE', #143, 2.499999999999998700 ) ;
#133 = APPROVAL_ROLE ( '' ) ;
#134 = DIRECTION ( 'NONE',  ( 1.000000000000000000, 0.0000000000000000000, 0.0000000000000000000 ) ) ;
#135 = SHAPE_DEFINITION_REPRESENTATION ( #172, #93 ) ;
#136 = DESIGN_CONTEXT ( 'detailed design', #52, 'design' ) ;
#137 = EDGE_CURVE ( 'NONE', #139, #51, #165, .T. ) ;
#138 = PERSON_AND_ORGANIZATION ( #43, #11 ) ;
#139 = VERTEX_POINT ( 'NONE', #79 ) ;
#140 = PERSON_AND_ORGANIZATION_ROLE ( 'design_supplier' ) ;
#141 = PRODUCT_RELATED_PRODUCT_CATEGORY ( 'detail', '', ( #39 ) ) ;
#142 = APPROVAL_DATE_TIME ( #2, #30 ) ;
#143 = AXIS2_PLACEMENT_3D ( 'NONE', #44, #116, #131 ) ;
#144 = CC_DESIGN_DATE_AND_TIME_ASSIGNMENT ( #109, #58, ( #57 ) ) ;
#145 = VERTEX_POINT ( 'NONE', #32 ) ;
#146 = CARTESIAN_POINT ( 'NONE',  ( 0.0000000000000000000, 0.0000000000000000000, 0.2000000000000000100 ) ) ;
#147 = COORDINATED_UNIVERSAL_TIME_OFFSET ( 5, 0, .BEHIND. ) ;
#148 = CC_DESIGN_APPROVAL ( #20, ( #125 ) ) ;
#149 = APPLICATION_PROTOCOL_DEFINITION ( 'international standard', 'config_control_design', 1994, #52 ) ;
#150 = CYLINDRICAL_SURFACE ( 'NONE', #59, 2.499999999999998700 ) ;
#151 = APPROVAL_STATUS ( 'not_yet_approved' ) ;
#152 = APPROVAL_PERSON_ORGANIZATION ( #98, #30, #133 ) ;
#153 = CC_DESIGN_PERSON_AND_ORGANIZATION_ASSIGNMENT ( #50, #37, ( #125 ) ) ;
#154 = EDGE_CURVE ( 'NONE', #113, #51, #110, .T. ) ;
#155 = PERSON_AND_ORGANIZATION ( #43, #11 ) ;
#156 = CARTESIAN_POINT ( 'NONE',  ( 2.499999999999998700, 3.061616997868381700E-016, 0.2000000000000000100 ) ) ;
#157 = DIRECTION ( 'NONE',  ( -1.000000000000000000, 0.0000000000000000000, 0.0000000000000000000 ) ) ;
#158 = DIRECTION ( 'NONE',  ( -0.0000000000000000000, -0.0000000000000000000, -1.000000000000000000 ) ) ;
#159 = AXIS2_PLACEMENT_3D ( 'NONE', #65, #117, #157 ) ;
#160 =( NAMED_UNIT ( * ) SI_UNIT ( $, .STERADIAN. ) SOLID_ANGLE_UNIT ( ) );
#161 = LOCAL_TIME ( 14, 35, 20.00000000000000000, #14 ) ;
#162 = ORIENTED_EDGE ( 'NONE', *, *, #89, .F. ) ;
#163 = PERSON_AND_ORGANIZATION_ROLE ( 'design_owner' ) ;
#164 = CC_DESIGN_PERSON_AND_ORGANIZATION_ASSIGNMENT ( #126, #140, ( #125 ) ) ;
#165 = LINE ( 'NONE', #156, #19 ) ;
#166 = LOCAL_TIME ( 14, 35, 20.00000000000000000, #88 ) ;
#167 = CLOSED_SHELL ( 'NONE', ( #97, #36, #120, #9 ) ) ;
#168 = UNCERTAINTY_MEASURE_WITH_UNIT (LENGTH_MEASURE( 1.000000000000000100E-005 ), #21, 'distance_accuracy_value', 'NONE');
#169 = DIRECTION ( 'NONE',  ( 1.000000000000000000, 0.0000000000000000000, 0.0000000000000000000 ) ) ;
#170 = FACE_OUTER_BOUND ( 'NONE', #63, .T. ) ;
#171 = EDGE_CURVE ( 'NONE', #51, #113, #67, .T. ) ;
#172 = PRODUCT_DEFINITION_SHAPE ( 'NONE', 'NONE',  #57 ) ;
#173 = APPROVAL_PERSON_ORGANIZATION ( #111, #95, #56 ) ;
#174 = ORIENTED_EDGE ( 'NONE', *, *, #154, .T. ) ;
#175 = DIRECTION ( 'NONE',  ( 1.000000000000000000, 0.0000000000000000000, 0.0000000000000000000 ) ) ;
ENDSEC;
END-ISO-10303-21;
