ISO-10303-21;
HEADER;
FILE_DESCRIPTION (( 'STEP AP203' ),
    '1' );
FILE_NAME ('Web Model 45583.STEP',
    '2017-01-31T15:18:10',
    ( '' ),
    ( '' ),
    'SwSTEP 2.0',
    'SolidWorks 2016',
    '' );
FILE_SCHEMA (( 'CONFIG_CONTROL_DESIGN' ));
ENDSEC;

DATA;
#1 = COORDINATED_UNIVERSAL_TIME_OFFSET ( 5, 0, .BEHIND. ) ;
#2 = DIRECTION ( 'NONE',  ( 0.0000000000000000000, 0.0000000000000000000, 1.000000000000000000 ) ) ;
#3 = CIRCLE ( 'NONE', #28, 25.00000000000000000 ) ;
#4 = APPLICATION_PROTOCOL_DEFINITION ( 'international standard', 'config_control_design', 1994, #55 ) ;
#5 = CALENDAR_DATE ( 2017, 31, 1 ) ;
#6 = APPROVAL_STATUS ( 'not_yet_approved' ) ;
#7 = VERTEX_POINT ( 'NONE', #82 ) ;
#8 = FACE_OUTER_BOUND ( 'NONE', #26, .T. ) ;
#9 = VERTEX_POINT ( 'NONE', #91 ) ;
#10 = DATE_AND_TIME ( #39, #81 ) ;
#11 = CALENDAR_DATE ( 2017, 31, 1 ) ;
#12 = APPROVAL_DATE_TIME ( #52, #95 ) ;
#13 = CARTESIAN_POINT ( 'NONE',  ( 0.0000000000000000000, 0.0000000000000000000, -4.000000000000000000 ) ) ;
#14 = DIRECTION ( 'NONE',  ( 0.0000000000000000000, 0.0000000000000000000, 1.000000000000000000 ) ) ;
#15 = CARTESIAN_POINT ( 'NONE',  ( 0.0000000000000000000, 0.0000000000000000000, -4.000000000000000000 ) ) ;
#16 = CARTESIAN_POINT ( 'NONE',  ( 25.00000000000000000, 0.0000000000000000000, -4.000000000000000000 ) ) ;
#17 = EDGE_LOOP ( 'NONE', ( #34, #75, #41, #141 ) ) ;
#18 = DIRECTION ( 'NONE',  ( 0.0000000000000000000, 0.0000000000000000000, 1.000000000000000000 ) ) ;
#19 = PERSON_AND_ORGANIZATION_ROLE ( 'design_supplier' ) ;
#20 = APPROVAL_ROLE ( '' ) ;
#21 = ORIENTED_EDGE ( 'NONE', *, *, #24, .T. ) ;
#22 = PRODUCT_DEFINITION_SHAPE ( 'NONE', 'NONE',  #167 ) ;
#23 = LOCAL_TIME ( 10, 18, 10.00000000000000000, #105 ) ;
#24 = EDGE_CURVE ( 'NONE', #166, #74, #108, .T. ) ;
#25 = APPROVAL_DATE_TIME ( #61, #35 ) ;
#26 = EDGE_LOOP ( 'NONE', ( #62, #21, #104, #151 ) ) ;
#27 = DATE_AND_TIME ( #11, #78 ) ;
#28 = AXIS2_PLACEMENT_3D ( 'NONE', #102, #88, #160 ) ;
#29 = ORGANIZATION ( 'UNSPECIFIED', 'UNSPECIFIED', '' ) ;
#30 = DIRECTION ( 'NONE',  ( 0.0000000000000000000, 0.0000000000000000000, 1.000000000000000000 ) ) ;
#31 = DIRECTION ( 'NONE',  ( 1.000000000000000000, 0.0000000000000000000, -0.0000000000000000000 ) ) ;
#32 = DATE_TIME_ROLE ( 'classification_date' ) ;
#33 = DIRECTION ( 'NONE',  ( 0.0000000000000000000, 0.0000000000000000000, 1.000000000000000000 ) ) ;
#34 = ORIENTED_EDGE ( 'NONE', *, *, #64, .T. ) ;
#35 = APPROVAL ( #6, 'UNSPECIFIED' ) ;
#36 = AXIS2_PLACEMENT_3D ( 'NONE', #40, #2, #89 ) ;
#37 = ADVANCED_BREP_SHAPE_REPRESENTATION ( 'Web Model 45583', ( #142, #109 ), #94 ) ;
#38 = CYLINDRICAL_SURFACE ( 'NONE', #36, 25.00000000000000000 ) ;
#39 = CALENDAR_DATE ( 2017, 31, 1 ) ;
#40 = CARTESIAN_POINT ( 'NONE',  ( 0.0000000000000000000, 0.0000000000000000000, -4.000000000000000000 ) ) ;
#41 = ORIENTED_EDGE ( 'NONE', *, *, #159, .F. ) ;
#42 = CARTESIAN_POINT ( 'NONE',  ( 0.0000000000000000000, 0.0000000000000000000, 0.0000000000000000000 ) ) ;
#43 = DIRECTION ( 'NONE',  ( 1.000000000000000000, 0.0000000000000000000, -0.0000000000000000000 ) ) ;
#44 = ORIENTED_EDGE ( 'NONE', *, *, #64, .F. ) ;
#45 = ADVANCED_FACE ( 'NONE', ( #8 ), #38, .T. ) ;
#46 = CC_DESIGN_APPROVAL ( #35, ( #167 ) ) ;
#47 = APPROVAL_STATUS ( 'not_yet_approved' ) ;
#48 = AXIS2_PLACEMENT_3D ( 'NONE', #13, #18, #31 ) ;
#49 = EDGE_LOOP ( 'NONE', ( #44, #134 ) ) ;
#50 = APPROVAL_PERSON_ORGANIZATION ( #124, #126, #165 ) ;
#51 = COORDINATED_UNIVERSAL_TIME_OFFSET ( 5, 0, .BEHIND. ) ;
#52 = DATE_AND_TIME ( #121, #23 ) ;
#53 = APPROVAL_PERSON_ORGANIZATION ( #144, #95, #107 ) ;
#54 = PLANE ( 'NONE',  #65 ) ;
#55 = APPLICATION_CONTEXT ( 'configuration controlled 3d designs of mechanical parts and assemblies' ) ;
#56 = AXIS2_PLACEMENT_3D ( 'NONE', #152, #147, #133 ) ;
#57 = DIRECTION ( 'NONE',  ( 0.0000000000000000000, 0.0000000000000000000, 1.000000000000000000 ) ) ;
#58 = PRODUCT_DEFINITION_FORMATION_WITH_SPECIFIED_SOURCE ( 'ANY', '', #99, .NOT_KNOWN. ) ;
#59 = MECHANICAL_CONTEXT ( 'NONE', #55, 'mechanical' ) ;
#60 = APPLICATION_CONTEXT ( 'configuration controlled 3d designs of mechanical parts and assemblies' ) ;
#61 = DATE_AND_TIME ( #90, #125 ) ;
#62 = ORIENTED_EDGE ( 'NONE', *, *, #96, .F. ) ;
#63 = CYLINDRICAL_SURFACE ( 'NONE', #77, 25.00000000000000000 ) ;
#64 = EDGE_CURVE ( 'NONE', #74, #166, #3, .T. ) ;
#65 = AXIS2_PLACEMENT_3D ( 'NONE', #118, #30, #43 ) ;
#66 = FACE_OUTER_BOUND ( 'NONE', #17, .T. ) ;
#67 = AXIS2_PLACEMENT_3D ( 'NONE', #162, #164, #112 ) ;
#68 =( NAMED_UNIT ( * ) SI_UNIT ( $, .STERADIAN. ) SOLID_ANGLE_UNIT ( ) );
#69 = FACE_OUTER_BOUND ( 'NONE', #110, .T. ) ;
#70 = COORDINATED_UNIVERSAL_TIME_OFFSET ( 5, 0, .BEHIND. ) ;
#71 = VECTOR ( 'NONE', #14, 1000.000000000000000 ) ;
#72 = APPROVAL_DATE_TIME ( #27, #126 ) ;
#73 = CC_DESIGN_PERSON_AND_ORGANIZATION_ASSIGNMENT ( #129, #106, ( #76 ) ) ;
#74 = VERTEX_POINT ( 'NONE', #16 ) ;
#75 = ORIENTED_EDGE ( 'NONE', *, *, #96, .T. ) ;
#76 = SECURITY_CLASSIFICATION ( '', '', #156 ) ;
#77 = AXIS2_PLACEMENT_3D ( 'NONE', #15, #57, #131 ) ;
#78 = LOCAL_TIME ( 10, 18, 10.00000000000000000, #70 ) ;
#79 = CC_DESIGN_PERSON_AND_ORGANIZATION_ASSIGNMENT ( #123, #122, ( #167 ) ) ;
#80 = CARTESIAN_POINT ( 'NONE',  ( 0.0000000000000000000, 0.0000000000000000000, 0.0000000000000000000 ) ) ;
#81 = LOCAL_TIME ( 10, 18, 10.00000000000000000, #51 ) ;
#82 = CARTESIAN_POINT ( 'NONE',  ( 25.00000000000000000, 0.0000000000000000000, 0.0000000000000000000 ) ) ;
#83 = CARTESIAN_POINT ( 'NONE',  ( -25.00000000000000000, 3.061616997868383000E-015, -4.000000000000000000 ) ) ;
#84 = PERSON_AND_ORGANIZATION ( #145, #29 ) ;
#85 = PERSON_AND_ORGANIZATION ( #145, #29 ) ;
#86 = AXIS2_PLACEMENT_3D ( 'NONE', #42, #175, #114 ) ;
#87 = VECTOR ( 'NONE', #116, 1000.000000000000000 ) ;
#88 = DIRECTION ( 'NONE',  ( 0.0000000000000000000, 0.0000000000000000000, 1.000000000000000000 ) ) ;
#89 = DIRECTION ( 'NONE',  ( 1.000000000000000000, 0.0000000000000000000, 0.0000000000000000000 ) ) ;
#90 = CALENDAR_DATE ( 2017, 31, 1 ) ;
#91 = CARTESIAN_POINT ( 'NONE',  ( -25.00000000000000000, 3.061616997868383000E-015, 0.0000000000000000000 ) ) ;
#92 = DESIGN_CONTEXT ( 'detailed design', #60, 'design' ) ;
#93 = PERSON_AND_ORGANIZATION_ROLE ( 'design_owner' ) ;
#94 =( GEOMETRIC_REPRESENTATION_CONTEXT ( 3 ) GLOBAL_UNCERTAINTY_ASSIGNED_CONTEXT ( ( #157 ) ) GLOBAL_UNIT_ASSIGNED_CONTEXT ( ( #150, #135, #68 ) ) REPRESENTATION_CONTEXT ( 'NONE', 'WORKASPACE' ) );
#95 = APPROVAL ( #120, 'UNSPECIFIED' ) ;
#96 = EDGE_CURVE ( 'NONE', #166, #9, #128, .T. ) ;
#97 = CLOSED_SHELL ( 'NONE', ( #136, #45, #103, #153 ) ) ;
#98 = CC_DESIGN_DATE_AND_TIME_ASSIGNMENT ( #155, #32, ( #76 ) ) ;
#99 = PRODUCT ( 'Web Model 45583', 'Web Model 45583', '', ( #59 ) ) ;
#100 = APPROVAL_PERSON_ORGANIZATION ( #146, #35, #20 ) ;
#101 = PLANE ( 'NONE',  #48 ) ;
#102 = CARTESIAN_POINT ( 'NONE',  ( 0.0000000000000000000, 0.0000000000000000000, -4.000000000000000000 ) ) ;
#103 = ADVANCED_FACE ( 'NONE', ( #161 ), #101, .F. ) ;
#104 = ORIENTED_EDGE ( 'NONE', *, *, #119, .T. ) ;
#105 = COORDINATED_UNIVERSAL_TIME_OFFSET ( 5, 0, .BEHIND. ) ;
#106 = PERSON_AND_ORGANIZATION_ROLE ( 'classification_officer' ) ;
#107 = APPROVAL_ROLE ( '' ) ;
#108 = CIRCLE ( 'NONE', #67, 25.00000000000000000 ) ;
#109 = AXIS2_PLACEMENT_3D ( 'NONE', #80, #33, #140 ) ;
#110 = EDGE_LOOP ( 'NONE', ( #174, #158 ) ) ;
#111 = COORDINATED_UNIVERSAL_TIME_OFFSET ( 5, 0, .BEHIND. ) ;
#112 = DIRECTION ( 'NONE',  ( 1.000000000000000000, 0.0000000000000000000, 0.0000000000000000000 ) ) ;
#113 = CARTESIAN_POINT ( 'NONE',  ( -25.00000000000000000, 3.061616997868383000E-015, -4.000000000000000000 ) ) ;
#114 = DIRECTION ( 'NONE',  ( 1.000000000000000000, 0.0000000000000000000, 0.0000000000000000000 ) ) ;
#115 = LINE ( 'NONE', #148, #87 ) ;
#116 = DIRECTION ( 'NONE',  ( 0.0000000000000000000, 0.0000000000000000000, 1.000000000000000000 ) ) ;
#117 = CC_DESIGN_DATE_AND_TIME_ASSIGNMENT ( #10, #168, ( #167 ) ) ;
#118 = CARTESIAN_POINT ( 'NONE',  ( 0.0000000000000000000, 0.0000000000000000000, 0.0000000000000000000 ) ) ;
#119 = EDGE_CURVE ( 'NONE', #74, #7, #115, .T. ) ;
#120 = APPROVAL_STATUS ( 'not_yet_approved' ) ;
#121 = CALENDAR_DATE ( 2017, 31, 1 ) ;
#122 = PERSON_AND_ORGANIZATION_ROLE ( 'creator' ) ;
#123 = PERSON_AND_ORGANIZATION ( #145, #29 ) ;
#124 = PERSON_AND_ORGANIZATION ( #145, #29 ) ;
#125 = LOCAL_TIME ( 10, 18, 10.00000000000000000, #1 ) ;
#126 = APPROVAL ( #47, 'UNSPECIFIED' ) ;
#127 = CC_DESIGN_SECURITY_CLASSIFICATION ( #76, ( #58 ) ) ;
#128 = LINE ( 'NONE', #83, #71 ) ;
#129 = PERSON_AND_ORGANIZATION ( #145, #29 ) ;
#130 = CC_DESIGN_APPROVAL ( #95, ( #58 ) ) ;
#131 = DIRECTION ( 'NONE',  ( 1.000000000000000000, 0.0000000000000000000, 0.0000000000000000000 ) ) ;
#132 = PRODUCT_RELATED_PRODUCT_CATEGORY ( 'detail', '', ( #99 ) ) ;
#133 = DIRECTION ( 'NONE',  ( 1.000000000000000000, 0.0000000000000000000, 0.0000000000000000000 ) ) ;
#134 = ORIENTED_EDGE ( 'NONE', *, *, #24, .F. ) ;
#135 =( NAMED_UNIT ( * ) PLANE_ANGLE_UNIT ( ) SI_UNIT ( $, .RADIAN. ) );
#136 = ADVANCED_FACE ( 'NONE', ( #66 ), #63, .T. ) ;
#137 = CIRCLE ( 'NONE', #86, 25.00000000000000000 ) ;
#138 = APPLICATION_PROTOCOL_DEFINITION ( 'international standard', 'config_control_design', 1994, #60 ) ;
#139 = LOCAL_TIME ( 10, 18, 10.00000000000000000, #111 ) ;
#140 = DIRECTION ( 'NONE',  ( 1.000000000000000000, 0.0000000000000000000, 0.0000000000000000000 ) ) ;
#141 = ORIENTED_EDGE ( 'NONE', *, *, #119, .F. ) ;
#142 = MANIFOLD_SOLID_BREP ( 'Extrude1', #97 ) ;
#143 = CC_DESIGN_PERSON_AND_ORGANIZATION_ASSIGNMENT ( #84, #154, ( #58 ) ) ;
#144 = PERSON_AND_ORGANIZATION ( #145, #29 ) ;
#145 = PERSON ( 'UNSPECIFIED', 'UNSPECIFIED', 'UNSPECIFIED', ('UNSPECIFIED'), ('UNSPECIFIED'), ('UNSPECIFIED') ) ;
#146 = PERSON_AND_ORGANIZATION ( #145, #29 ) ;
#147 = DIRECTION ( 'NONE',  ( 0.0000000000000000000, 0.0000000000000000000, 1.000000000000000000 ) ) ;
#148 = CARTESIAN_POINT ( 'NONE',  ( 25.00000000000000000, 0.0000000000000000000, -4.000000000000000000 ) ) ;
#149 = CC_DESIGN_APPROVAL ( #126, ( #76 ) ) ;
#150 =( LENGTH_UNIT ( ) NAMED_UNIT ( * ) SI_UNIT ( .MILLI., .METRE. ) );
#151 = ORIENTED_EDGE ( 'NONE', *, *, #163, .F. ) ;
#152 = CARTESIAN_POINT ( 'NONE',  ( 0.0000000000000000000, 0.0000000000000000000, 0.0000000000000000000 ) ) ;
#153 = ADVANCED_FACE ( 'NONE', ( #69 ), #54, .T. ) ;
#154 = PERSON_AND_ORGANIZATION_ROLE ( 'creator' ) ;
#155 = DATE_AND_TIME ( #5, #139 ) ;
#156 = SECURITY_CLASSIFICATION_LEVEL ( 'unclassified' ) ;
#157 = UNCERTAINTY_MEASURE_WITH_UNIT (LENGTH_MEASURE( 1.000000000000000100E-005 ), #150, 'distance_accuracy_value', 'NONE');
#158 = ORIENTED_EDGE ( 'NONE', *, *, #163, .T. ) ;
#159 = EDGE_CURVE ( 'NONE', #7, #9, #137, .T. ) ;
#160 = DIRECTION ( 'NONE',  ( 1.000000000000000000, 0.0000000000000000000, 0.0000000000000000000 ) ) ;
#161 = FACE_OUTER_BOUND ( 'NONE', #49, .T. ) ;
#162 = CARTESIAN_POINT ( 'NONE',  ( 0.0000000000000000000, 0.0000000000000000000, -4.000000000000000000 ) ) ;
#163 = EDGE_CURVE ( 'NONE', #9, #7, #169, .T. ) ;
#164 = DIRECTION ( 'NONE',  ( 0.0000000000000000000, 0.0000000000000000000, 1.000000000000000000 ) ) ;
#165 = APPROVAL_ROLE ( '' ) ;
#166 = VERTEX_POINT ( 'NONE', #113 ) ;
#167 = PRODUCT_DEFINITION ( 'UNKNOWN', '', #58, #92 ) ;
#168 = DATE_TIME_ROLE ( 'creation_date' ) ;
#169 = CIRCLE ( 'NONE', #56, 25.00000000000000000 ) ;
#170 = SHAPE_DEFINITION_REPRESENTATION ( #22, #37 ) ;
#171 = CC_DESIGN_PERSON_AND_ORGANIZATION_ASSIGNMENT ( #172, #93, ( #99 ) ) ;
#172 = PERSON_AND_ORGANIZATION ( #145, #29 ) ;
#173 = CC_DESIGN_PERSON_AND_ORGANIZATION_ASSIGNMENT ( #85, #19, ( #58 ) ) ;
#174 = ORIENTED_EDGE ( 'NONE', *, *, #159, .T. ) ;
#175 = DIRECTION ( 'NONE',  ( 0.0000000000000000000, 0.0000000000000000000, 1.000000000000000000 ) ) ;
ENDSEC;
END-ISO-10303-21;
