ISO-10303-21;
HEADER;
FILE_DESCRIPTION (( 'STEP AP203' ),
    '1' );
FILE_NAME ('Web Model 17562_22065.step',
    '2022-06-17T14:38:07',
    ( 'WC' ),
    ( 'Windows Central' ),
    'SwSTEP 2.0',
    'SolidWorks 2021',
    '' );
FILE_SCHEMA (( 'CONFIG_CONTROL_DESIGN' ));
ENDSEC;

DATA;
#1 = VERTEX_POINT ( 'NONE', #4 ) ;
#2 = DIRECTION ( 'NONE',  ( 1.000000000000000000, 0.000000000000000000, 0.000000000000000000 ) ) ;
#3 = DIRECTION ( 'NONE',  ( -1.000000000000000000, 0.000000000000000000, 0.000000000000000000 ) ) ;
#4 = CARTESIAN_POINT ( 'NONE',  ( 2.460629921259842590, 3.013402556957070180E-16, 0.2362204724409449064 ) ) ;
#5 =( GEOMETRIC_REPRESENTATION_CONTEXT ( 3 ) GLOBAL_UNCERTAINTY_ASSIGNED_CONTEXT ( ( #29 ) ) GLOBAL_UNIT_ASSIGNED_CONTEXT ( ( #18, #105, #79 ) ) REPRESENTATION_CONTEXT ( 'NONE', 'WORKASPACE' ) );
#6 = CARTESIAN_POINT ( 'NONE',  ( 2.460629921259842590, 3.013402556957070180E-16, 0.2362204724409449064 ) ) ;
#7 = APPROVAL_DATE_TIME ( #20, #88 ) ;
#8 = CC_DESIGN_PERSON_AND_ORGANIZATION_ASSIGNMENT ( #112, #32, ( #10 ) ) ;
#9 = PERSON_AND_ORGANIZATION_ROLE ( 'creator' ) ;
#10 = PRODUCT_DEFINITION_FORMATION_WITH_SPECIFIED_SOURCE ( 'ANY', '', #160, .NOT_KNOWN. ) ;
#11 = COORDINATED_UNIVERSAL_TIME_OFFSET ( 5, 0, .BEHIND. ) ;
#12 = CIRCLE ( 'NONE', #110, 2.460629921259842590 ) ;
#13 = ORIENTED_EDGE ( 'NONE', *, *, #127, .T. ) ;
#14 = LENGTH_MEASURE_WITH_UNIT ( LENGTH_MEASURE( 0.02539999999999999897 ), #81 );
#15 = LOCAL_TIME ( 10, 38, 7.000000000000000000, #11 ) ;
#16 = APPROVAL_PERSON_ORGANIZATION ( #141, #167, #60 ) ;
#17 = CYLINDRICAL_SURFACE ( 'NONE', #142, 2.460629921259842590 ) ;
#18 =( CONVERSION_BASED_UNIT ( 'INCH', #14 ) LENGTH_UNIT ( ) NAMED_UNIT ( #58 ) );
#19 = DIRECTION ( 'NONE',  ( 1.000000000000000000, 0.000000000000000000, 0.000000000000000000 ) ) ;
#20 = DATE_AND_TIME ( #84, #108 ) ;
#21 = COORDINATED_UNIVERSAL_TIME_OFFSET ( 5, 0, .BEHIND. ) ;
#22 = DATE_AND_TIME ( #143, #24 ) ;
#23 = EDGE_CURVE ( 'NONE', #1, #104, #12, .T. ) ;
#24 = LOCAL_TIME ( 10, 38, 7.000000000000000000, #100 ) ;
#25 = ORIENTED_EDGE ( 'NONE', *, *, #23, .F. ) ;
#26 = ORIENTED_EDGE ( 'NONE', *, *, #72, .T. ) ;
#27 = CARTESIAN_POINT ( 'NONE',  ( 0.000000000000000000, 0.000000000000000000, 0.2362204724409449064 ) ) ;
#28 = DIRECTION ( 'NONE',  ( 0.000000000000000000, 0.000000000000000000, 1.000000000000000000 ) ) ;
#29 = UNCERTAINTY_MEASURE_WITH_UNIT (LENGTH_MEASURE( 1.000000000000000082E-05 ), #18, 'distance_accuracy_value', 'NONE');
#30 = DIRECTION ( 'NONE',  ( -0.000000000000000000, -0.000000000000000000, -1.000000000000000000 ) ) ;
#31 = COORDINATED_UNIVERSAL_TIME_OFFSET ( 5, 0, .BEHIND. ) ;
#32 = PERSON_AND_ORGANIZATION_ROLE ( 'creator' ) ;
#33 = CC_DESIGN_DATE_AND_TIME_ASSIGNMENT ( #45, #97, ( #76 ) ) ;
#34 = APPLICATION_PROTOCOL_DEFINITION ( 'international standard', 'config_control_design', 1994, #123 ) ;
#35 = LOCAL_TIME ( 10, 38, 7.000000000000000000, #21 ) ;
#36 = PERSON_AND_ORGANIZATION ( #113, #131 ) ;
#37 = SECURITY_CLASSIFICATION_LEVEL ( 'unclassified' ) ;
#38 = PRODUCT_DEFINITION_SHAPE ( 'NONE', 'NONE',  #40 ) ;
#39 = EDGE_LOOP ( 'NONE', ( #25, #102, #13, #52 ) ) ;
#40 = PRODUCT_DEFINITION ( 'UNKNOWN', '', #10, #138 ) ;
#41 = DIRECTION ( 'NONE',  ( 1.000000000000000000, 0.000000000000000000, -0.000000000000000000 ) ) ;
#42 = VECTOR ( 'NONE', #166, 39.37007874015748143 ) ;
#43 = DIRECTION ( 'NONE',  ( -0.000000000000000000, -0.000000000000000000, -1.000000000000000000 ) ) ;
#44 = CARTESIAN_POINT ( 'NONE',  ( 2.460629921259842590, 3.013402556957070180E-16, 0.000000000000000000 ) ) ;
#45 = DATE_AND_TIME ( #114, #15 ) ;
#46 = VECTOR ( 'NONE', #30, 39.37007874015748143 ) ;
#47 = APPROVAL_STATUS ( 'not_yet_approved' ) ;
#48 = CIRCLE ( 'NONE', #87, 2.460629921259842590 ) ;
#49 = APPROVAL_DATE_TIME ( #98, #167 ) ;
#50 = EDGE_LOOP ( 'NONE', ( #162, #164, #137, #26 ) ) ;
#51 = CC_DESIGN_APPROVAL ( #161, ( #10 ) ) ;
#52 = ORIENTED_EDGE ( 'NONE', *, *, #53, .F. ) ;
#53 = EDGE_CURVE ( 'NONE', #104, #149, #135, .T. ) ;
#54 = PLANE ( 'NONE',  #57 ) ;
#55 = LINE ( 'NONE', #6, #46 ) ;
#56 = DIRECTION ( 'NONE',  ( 0.000000000000000000, 0.000000000000000000, 1.000000000000000000 ) ) ;
#57 = AXIS2_PLACEMENT_3D ( 'NONE', #95, #28, #119 ) ;
#58 = DIMENSIONAL_EXPONENTS ( 1.000000000000000000, 0.000000000000000000, 0.000000000000000000, 0.000000000000000000, 0.000000000000000000, 0.000000000000000000, 0.000000000000000000 ) ;
#59 = SHAPE_DEFINITION_REPRESENTATION ( #38, #147 ) ;
#60 = APPROVAL_ROLE ( '' ) ;
#61 = CARTESIAN_POINT ( 'NONE',  ( 0.000000000000000000, 0.000000000000000000, 0.000000000000000000 ) ) ;
#62 = PERSON_AND_ORGANIZATION ( #113, #131 ) ;
#63 = APPLICATION_PROTOCOL_DEFINITION ( 'international standard', 'config_control_design', 1994, #136 ) ;
#64 = CC_DESIGN_PERSON_AND_ORGANIZATION_ASSIGNMENT ( #62, #159, ( #10 ) ) ;
#65 = AXIS2_PLACEMENT_3D ( 'NONE', #27, #96, #41 ) ;
#66 = ADVANCED_FACE ( 'NONE', ( #82 ), #54, .F. ) ;
#67 = CARTESIAN_POINT ( 'NONE',  ( 0.000000000000000000, 0.000000000000000000, 0.2362204724409449064 ) ) ;
#68 = ORIENTED_EDGE ( 'NONE', *, *, #83, .T. ) ;
#69 = CYLINDRICAL_SURFACE ( 'NONE', #146, 2.460629921259842590 ) ;
#70 = FACE_OUTER_BOUND ( 'NONE', #39, .T. ) ;
#71 = CARTESIAN_POINT ( 'NONE',  ( 0.000000000000000000, 0.000000000000000000, 0.000000000000000000 ) ) ;
#72 = EDGE_CURVE ( 'NONE', #149, #117, #48, .T. ) ;
#73 = CALENDAR_DATE ( 2022, 17, 6 ) ;
#74 = APPROVAL_DATE_TIME ( #22, #161 ) ;
#75 = AXIS2_PLACEMENT_3D ( 'NONE', #80, #93, #106 ) ;
#76 = SECURITY_CLASSIFICATION ( '', '', #37 ) ;
#77 = CLOSED_SHELL ( 'NONE', ( #172, #163, #132, #66 ) ) ;
#78 = EDGE_LOOP ( 'NONE', ( #68, #151 ) ) ;
#79 =( NAMED_UNIT ( * ) SI_UNIT ( $, .STERADIAN. ) SOLID_ANGLE_UNIT ( ) );
#80 = CARTESIAN_POINT ( 'NONE',  ( 0.000000000000000000, 0.000000000000000000, 0.000000000000000000 ) ) ;
#81 =( LENGTH_UNIT ( ) NAMED_UNIT ( * ) SI_UNIT ( $, .METRE. ) );
#82 = FACE_OUTER_BOUND ( 'NONE', #177, .T. ) ;
#83 = EDGE_CURVE ( 'NONE', #104, #1, #103, .T. ) ;
#84 = CALENDAR_DATE ( 2022, 17, 6 ) ;
#85 = PERSON_AND_ORGANIZATION_ROLE ( 'design_owner' ) ;
#86 = CC_DESIGN_APPROVAL ( #88, ( #76 ) ) ;
#87 = AXIS2_PLACEMENT_3D ( 'NONE', #71, #121, #165 ) ;
#88 = APPROVAL ( #173, 'UNSPECIFIED' ) ;
#89 = MECHANICAL_CONTEXT ( 'NONE', #136, 'mechanical' ) ;
#90 = PERSON_AND_ORGANIZATION_ROLE ( 'classification_officer' ) ;
#91 = AXIS2_PLACEMENT_3D ( 'NONE', #61, #140, #157 ) ;
#92 = ORIENTED_EDGE ( 'NONE', *, *, #127, .F. ) ;
#93 = DIRECTION ( 'NONE',  ( 0.000000000000000000, 0.000000000000000000, 1.000000000000000000 ) ) ;
#94 = CARTESIAN_POINT ( 'NONE',  ( -2.460629921259842590, 0.000000000000000000, 0.000000000000000000 ) ) ;
#95 = CARTESIAN_POINT ( 'NONE',  ( 0.000000000000000000, 0.000000000000000000, 0.000000000000000000 ) ) ;
#96 = DIRECTION ( 'NONE',  ( 0.000000000000000000, 0.000000000000000000, 1.000000000000000000 ) ) ;
#97 = DATE_TIME_ROLE ( 'classification_date' ) ;
#98 = DATE_AND_TIME ( #158, #109 ) ;
#99 = CC_DESIGN_PERSON_AND_ORGANIZATION_ASSIGNMENT ( #128, #90, ( #76 ) ) ;
#100 = COORDINATED_UNIVERSAL_TIME_OFFSET ( 5, 0, .BEHIND. ) ;
#101 = PERSON_AND_ORGANIZATION ( #113, #131 ) ;
#102 = ORIENTED_EDGE ( 'NONE', *, *, #178, .T. ) ;
#103 = CIRCLE ( 'NONE', #150, 2.460629921259842590 ) ;
#104 = VERTEX_POINT ( 'NONE', #139 ) ;
#105 =( NAMED_UNIT ( * ) PLANE_ANGLE_UNIT ( ) SI_UNIT ( $, .RADIAN. ) );
#106 = DIRECTION ( 'NONE',  ( 1.000000000000000000, 0.000000000000000000, 0.000000000000000000 ) ) ;
#107 = DIRECTION ( 'NONE',  ( 0.000000000000000000, 0.000000000000000000, 1.000000000000000000 ) ) ;
#108 = LOCAL_TIME ( 10, 38, 7.000000000000000000, #31 ) ;
#109 = LOCAL_TIME ( 10, 38, 7.000000000000000000, #174 ) ;
#110 = AXIS2_PLACEMENT_3D ( 'NONE', #170, #56, #2 ) ;
#111 = PERSON_AND_ORGANIZATION ( #113, #131 ) ;
#112 = PERSON_AND_ORGANIZATION ( #113, #131 ) ;
#113 = PERSON ( 'UNSPECIFIED', 'UNSPECIFIED', 'UNSPECIFIED', ('UNSPECIFIED'), ('UNSPECIFIED'), ('UNSPECIFIED') ) ;
#114 = CALENDAR_DATE ( 2022, 17, 6 ) ;
#115 = ORIENTED_EDGE ( 'NONE', *, *, #72, .F. ) ;
#116 = CC_DESIGN_PERSON_AND_ORGANIZATION_ASSIGNMENT ( #101, #9, ( #40 ) ) ;
#117 = VERTEX_POINT ( 'NONE', #44 ) ;
#118 = CARTESIAN_POINT ( 'NONE',  ( 0.000000000000000000, 0.000000000000000000, 0.2362204724409449064 ) ) ;
#119 = DIRECTION ( 'NONE',  ( 1.000000000000000000, 0.000000000000000000, -0.000000000000000000 ) ) ;
#120 = CARTESIAN_POINT ( 'NONE',  ( -2.460629921259842590, 0.000000000000000000, 0.2362204724409449064 ) ) ;
#121 = DIRECTION ( 'NONE',  ( 0.000000000000000000, 0.000000000000000000, 1.000000000000000000 ) ) ;
#122 = DIRECTION ( 'NONE',  ( -0.000000000000000000, -0.000000000000000000, -1.000000000000000000 ) ) ;
#123 = APPLICATION_CONTEXT ( 'configuration controlled 3d designs of mechanical parts and assemblies' ) ;
#124 = APPROVAL_STATUS ( 'not_yet_approved' ) ;
#125 = DATE_TIME_ROLE ( 'creation_date' ) ;
#126 = APPROVAL_ROLE ( '' ) ;
#127 = EDGE_CURVE ( 'NONE', #117, #149, #155, .T. ) ;
#128 = PERSON_AND_ORGANIZATION ( #113, #131 ) ;
#129 = CC_DESIGN_DATE_AND_TIME_ASSIGNMENT ( #176, #125, ( #40 ) ) ;
#130 = CC_DESIGN_SECURITY_CLASSIFICATION ( #76, ( #10 ) ) ;
#131 = ORGANIZATION ( 'UNSPECIFIED', 'UNSPECIFIED', '' ) ;
#132 = ADVANCED_FACE ( 'NONE', ( #154 ), #152, .T. ) ;
#133 = FACE_OUTER_BOUND ( 'NONE', #50, .T. ) ;
#134 = MANIFOLD_SOLID_BREP ( 'Boss-Extrude1', #77 ) ;
#135 = LINE ( 'NONE', #120, #42 ) ;
#136 = APPLICATION_CONTEXT ( 'configuration controlled 3d designs of mechanical parts and assemblies' ) ;
#137 = ORIENTED_EDGE ( 'NONE', *, *, #53, .T. ) ;
#138 = DESIGN_CONTEXT ( 'detailed design', #123, 'design' ) ;
#139 = CARTESIAN_POINT ( 'NONE',  ( -2.460629921259842590, 0.000000000000000000, 0.2362204724409449064 ) ) ;
#140 = DIRECTION ( 'NONE',  ( 0.000000000000000000, 0.000000000000000000, 1.000000000000000000 ) ) ;
#141 = PERSON_AND_ORGANIZATION ( #113, #131 ) ;
#142 = AXIS2_PLACEMENT_3D ( 'NONE', #118, #43, #169 ) ;
#143 = CALENDAR_DATE ( 2022, 17, 6 ) ;
#144 = CC_DESIGN_PERSON_AND_ORGANIZATION_ASSIGNMENT ( #175, #85, ( #160 ) ) ;
#145 = APPROVAL_PERSON_ORGANIZATION ( #36, #161, #126 ) ;
#146 = AXIS2_PLACEMENT_3D ( 'NONE', #67, #122, #3 ) ;
#147 = ADVANCED_BREP_SHAPE_REPRESENTATION ( 'Web Model 17562_22065', ( #134, #91 ), #5 ) ;
#148 = PRODUCT_RELATED_PRODUCT_CATEGORY ( 'detail', '', ( #160 ) ) ;
#149 = VERTEX_POINT ( 'NONE', #94 ) ;
#150 = AXIS2_PLACEMENT_3D ( 'NONE', #171, #107, #19 ) ;
#151 = ORIENTED_EDGE ( 'NONE', *, *, #23, .T. ) ;
#152 = PLANE ( 'NONE',  #65 ) ;
#153 = APPROVAL_PERSON_ORGANIZATION ( #111, #88, #156 ) ;
#154 = FACE_OUTER_BOUND ( 'NONE', #78, .T. ) ;
#155 = CIRCLE ( 'NONE', #75, 2.460629921259842590 ) ;
#156 = APPROVAL_ROLE ( '' ) ;
#157 = DIRECTION ( 'NONE',  ( 1.000000000000000000, 0.000000000000000000, 0.000000000000000000 ) ) ;
#158 = CALENDAR_DATE ( 2022, 17, 6 ) ;
#159 = PERSON_AND_ORGANIZATION_ROLE ( 'design_supplier' ) ;
#160 = PRODUCT ( 'Web Model 17562_22065', 'Web Model 17562_22065', '', ( #89 ) ) ;
#161 = APPROVAL ( #124, 'UNSPECIFIED' ) ;
#162 = ORIENTED_EDGE ( 'NONE', *, *, #178, .F. ) ;
#163 = ADVANCED_FACE ( 'NONE', ( #133 ), #17, .T. ) ;
#164 = ORIENTED_EDGE ( 'NONE', *, *, #83, .F. ) ;
#165 = DIRECTION ( 'NONE',  ( 1.000000000000000000, 0.000000000000000000, 0.000000000000000000 ) ) ;
#166 = DIRECTION ( 'NONE',  ( -0.000000000000000000, -0.000000000000000000, -1.000000000000000000 ) ) ;
#167 = APPROVAL ( #47, 'UNSPECIFIED' ) ;
#168 = CC_DESIGN_APPROVAL ( #167, ( #40 ) ) ;
#169 = DIRECTION ( 'NONE',  ( -1.000000000000000000, 0.000000000000000000, 0.000000000000000000 ) ) ;
#170 = CARTESIAN_POINT ( 'NONE',  ( 0.000000000000000000, 0.000000000000000000, 0.2362204724409449064 ) ) ;
#171 = CARTESIAN_POINT ( 'NONE',  ( 0.000000000000000000, 0.000000000000000000, 0.2362204724409449064 ) ) ;
#172 = ADVANCED_FACE ( 'NONE', ( #70 ), #69, .T. ) ;
#173 = APPROVAL_STATUS ( 'not_yet_approved' ) ;
#174 = COORDINATED_UNIVERSAL_TIME_OFFSET ( 5, 0, .BEHIND. ) ;
#175 = PERSON_AND_ORGANIZATION ( #113, #131 ) ;
#176 = DATE_AND_TIME ( #73, #35 ) ;
#177 = EDGE_LOOP ( 'NONE', ( #115, #92 ) ) ;
#178 = EDGE_CURVE ( 'NONE', #1, #117, #55, .T. ) ;
ENDSEC;
END-ISO-10303-21;
