ISO-10303-21;
HEADER;
FILE_DESCRIPTION (( 'STEP AP203' ),
    '1' );
FILE_NAME ('Web Model 46457_15987.step',
    '2020-10-09T14:02:51',
    ( '' ),
    ( '' ),
    'SwSTEP 2.0',
    'SolidWorks 2018',
    '' );
FILE_SCHEMA (( 'CONFIG_CONTROL_DESIGN' ));
ENDSEC;

DATA;
#1 = PERSON_AND_ORGANIZATION ( #154, #106 ) ;
#2 = PERSON_AND_ORGANIZATION_ROLE ( 'creator' ) ;
#3 = ORIENTED_EDGE ( 'NONE', *, *, #140, .T. ) ;
#4 = CC_DESIGN_PERSON_AND_ORGANIZATION_ASSIGNMENT ( #16, #2, ( #82 ) ) ;
#5 = ORIENTED_EDGE ( 'NONE', *, *, #168, .F. ) ;
#6 = PERSON_AND_ORGANIZATION ( #154, #106 ) ;
#7 = CARTESIAN_POINT ( 'NONE',  ( 0.7500000000000000000, 7.776507174585692163E-16, -6.349999999999999645 ) ) ;
#8 = UNCERTAINTY_MEASURE_WITH_UNIT (LENGTH_MEASURE( 1.000000000000000082E-05 ), #167, 'distance_accuracy_value', 'NONE');
#9 = CARTESIAN_POINT ( 'NONE',  ( 0.7500000000000000000, 7.776507174585692163E-16, -6.349999999999999645 ) ) ;
#10 = DIRECTION ( 'NONE',  ( 0.0000000000000000000, 0.0000000000000000000, 1.000000000000000000 ) ) ;
#11 = CARTESIAN_POINT ( 'NONE',  ( 0.7500000000000000000, 0.0000000000000000000, 0.0000000000000000000 ) ) ;
#12 = CARTESIAN_POINT ( 'NONE',  ( 0.7500000000000000000, 0.0000000000000000000, 0.0000000000000000000 ) ) ;
#13 = APPROVAL_DATE_TIME ( #77, #153 ) ;
#14 = APPROVAL_STATUS ( 'not_yet_approved' ) ;
#15 = ORIENTED_EDGE ( 'NONE', *, *, #158, .F. ) ;
#16 = PERSON_AND_ORGANIZATION ( #154, #106 ) ;
#17 = CIRCLE ( 'NONE', #108, 6.349999999999999645 ) ;
#18 = ORIENTED_EDGE ( 'NONE', *, *, #168, .T. ) ;
#19 = COORDINATED_UNIVERSAL_TIME_OFFSET ( 5, 0, .BEHIND. ) ;
#20 = DIRECTION ( 'NONE',  ( 0.0000000000000000000, 0.0000000000000000000, -1.000000000000000000 ) ) ;
#21 = APPROVAL_DATE_TIME ( #57, #128 ) ;
#22 = CARTESIAN_POINT ( 'NONE',  ( -0.7500000000000000000, 7.776507174585692163E-16, -6.349999999999999645 ) ) ;
#23 = SECURITY_CLASSIFICATION ( '', '', #148 ) ;
#24 = LOCAL_TIME ( 10, 2, 51.00000000000000000, #19 ) ;
#25 = AXIS2_PLACEMENT_3D ( 'NONE', #34, #60, #160 ) ;
#26 = FACE_OUTER_BOUND ( 'NONE', #61, .T. ) ;
#27 = CC_DESIGN_APPROVAL ( #128, ( #82 ) ) ;
#28 = ADVANCED_FACE ( 'NONE', ( #69 ), #30, .T. ) ;
#29 = DESIGN_CONTEXT ( 'detailed design', #37, 'design' ) ;
#30 = CYLINDRICAL_SURFACE ( 'NONE', #53, 6.349999999999999645 ) ;
#31 = LOCAL_TIME ( 10, 2, 51.00000000000000000, #95 ) ;
#32 = CARTESIAN_POINT ( 'NONE',  ( 0.7500000000000000000, 0.0000000000000000000, 6.349999999999999645 ) ) ;
#33 = VECTOR ( 'NONE', #143, 1000.000000000000000 ) ;
#34 = CARTESIAN_POINT ( 'NONE',  ( -0.7500000000000000000, 0.0000000000000000000, 0.0000000000000000000 ) ) ;
#35 = VERTEX_POINT ( 'NONE', #7 ) ;
#36 = LOCAL_TIME ( 10, 2, 51.00000000000000000, #73 ) ;
#37 = APPLICATION_CONTEXT ( 'configuration controlled 3d designs of mechanical parts and assemblies' ) ;
#38 =( NAMED_UNIT ( * ) PLANE_ANGLE_UNIT ( ) SI_UNIT ( $, .RADIAN. ) );
#39 = VERTEX_POINT ( 'NONE', #100 ) ;
#40 = PERSON_AND_ORGANIZATION ( #154, #106 ) ;
#41 = CC_DESIGN_APPROVAL ( #153, ( #110 ) ) ;
#42 = ORIENTED_EDGE ( 'NONE', *, *, #158, .T. ) ;
#43 = PLANE ( 'NONE',  #136 ) ;
#44 = DIRECTION ( 'NONE',  ( 1.000000000000000000, 0.0000000000000000000, 0.0000000000000000000 ) ) ;
#45 = DIRECTION ( 'NONE',  ( 0.0000000000000000000, 0.0000000000000000000, -1.000000000000000000 ) ) ;
#46 = LOCAL_TIME ( 10, 2, 51.00000000000000000, #55 ) ;
#47 = AXIS2_PLACEMENT_3D ( 'NONE', #11, #162, #102 ) ;
#48 = PERSON_AND_ORGANIZATION_ROLE ( 'classification_officer' ) ;
#49 = DATE_TIME_ROLE ( 'classification_date' ) ;
#50 = VECTOR ( 'NONE', #117, 1000.000000000000000 ) ;
#51 =( GEOMETRIC_REPRESENTATION_CONTEXT ( 3 ) GLOBAL_UNCERTAINTY_ASSIGNED_CONTEXT ( ( #8 ) ) GLOBAL_UNIT_ASSIGNED_CONTEXT ( ( #167, #38, #92 ) ) REPRESENTATION_CONTEXT ( 'NONE', 'WORKASPACE' ) );
#52 = CIRCLE ( 'NONE', #94, 6.349999999999999645 ) ;
#53 = AXIS2_PLACEMENT_3D ( 'NONE', #157, #86, #87 ) ;
#54 = ORIENTED_EDGE ( 'NONE', *, *, #74, .T. ) ;
#55 = COORDINATED_UNIVERSAL_TIME_OFFSET ( 5, 0, .BEHIND. ) ;
#56 = ADVANCED_FACE ( 'NONE', ( #165 ), #43, .F. ) ;
#57 = DATE_AND_TIME ( #113, #31 ) ;
#58 = ORIENTED_EDGE ( 'NONE', *, *, #74, .F. ) ;
#59 = APPROVAL ( #14, 'UNSPECIFIED' ) ;
#60 = DIRECTION ( 'NONE',  ( 1.000000000000000000, 0.0000000000000000000, 0.0000000000000000000 ) ) ;
#61 = EDGE_LOOP ( 'NONE', ( #54, #124 ) ) ;
#62 = DIRECTION ( 'NONE',  ( 1.000000000000000000, 0.0000000000000000000, 0.0000000000000000000 ) ) ;
#63 = DIRECTION ( 'NONE',  ( 0.0000000000000000000, 0.0000000000000000000, -1.000000000000000000 ) ) ;
#64 = PERSON_AND_ORGANIZATION_ROLE ( 'design_owner' ) ;
#65 = APPROVAL_PERSON_ORGANIZATION ( #159, #128, #107 ) ;
#66 = AXIS2_PLACEMENT_3D ( 'NONE', #89, #75, #104 ) ;
#67 = DIRECTION ( 'NONE',  ( 1.000000000000000000, 0.0000000000000000000, 0.0000000000000000000 ) ) ;
#68 = AXIS2_PLACEMENT_3D ( 'NONE', #174, #10, #67 ) ;
#69 = FACE_OUTER_BOUND ( 'NONE', #115, .T. ) ;
#70 = CIRCLE ( 'NONE', #25, 6.349999999999999645 ) ;
#71 = CALENDAR_DATE ( 2020, 9, 10 ) ;
#72 = FACE_OUTER_BOUND ( 'NONE', #122, .T. ) ;
#73 = COORDINATED_UNIVERSAL_TIME_OFFSET ( 5, 0, .BEHIND. ) ;
#74 = EDGE_CURVE ( 'NONE', #39, #35, #161, .T. ) ;
#75 = DIRECTION ( 'NONE',  ( 1.000000000000000000, 0.0000000000000000000, 0.0000000000000000000 ) ) ;
#76 = APPROVAL_PERSON_ORGANIZATION ( #171, #59, #79 ) ;
#77 = DATE_AND_TIME ( #156, #46 ) ;
#78 = APPLICATION_PROTOCOL_DEFINITION ( 'international standard', 'config_control_design', 1994, #37 ) ;
#79 = APPROVAL_ROLE ( '' ) ;
#80 = EDGE_CURVE ( 'NONE', #35, #97, #123, .T. ) ;
#81 = CYLINDRICAL_SURFACE ( 'NONE', #47, 6.349999999999999645 ) ;
#82 = PRODUCT_DEFINITION ( 'UNKNOWN', '', #110, #29 ) ;
#83 = ADVANCED_FACE ( 'NONE', ( #72 ), #81, .T. ) ;
#84 = APPROVAL_DATE_TIME ( #139, #59 ) ;
#85 = CC_DESIGN_DATE_AND_TIME_ASSIGNMENT ( #111, #49, ( #23 ) ) ;
#86 = DIRECTION ( 'NONE',  ( -1.000000000000000000, -0.0000000000000000000, -0.0000000000000000000 ) ) ;
#87 = DIRECTION ( 'NONE',  ( 0.0000000000000000000, 0.0000000000000000000, 1.000000000000000000 ) ) ;
#88 = PLANE ( 'NONE',  #170 ) ;
#89 = CARTESIAN_POINT ( 'NONE',  ( 0.7500000000000000000, 0.0000000000000000000, 0.0000000000000000000 ) ) ;
#90 = DATE_AND_TIME ( #93, #24 ) ;
#91 = CARTESIAN_POINT ( 'NONE',  ( -0.7500000000000000000, 0.0000000000000000000, 0.0000000000000000000 ) ) ;
#92 =( NAMED_UNIT ( * ) SI_UNIT ( $, .STERADIAN. ) SOLID_ANGLE_UNIT ( ) );
#93 = CALENDAR_DATE ( 2020, 9, 10 ) ;
#94 = AXIS2_PLACEMENT_3D ( 'NONE', #146, #126, #63 ) ;
#95 = COORDINATED_UNIVERSAL_TIME_OFFSET ( 5, 0, .BEHIND. ) ;
#96 = APPROVAL_PERSON_ORGANIZATION ( #1, #153, #118 ) ;
#97 = VERTEX_POINT ( 'NONE', #22 ) ;
#98 = LINE ( 'NONE', #32, #33 ) ;
#99 = SHAPE_DEFINITION_REPRESENTATION ( #121, #172 ) ;
#100 = CARTESIAN_POINT ( 'NONE',  ( 0.7500000000000000000, 0.0000000000000000000, 6.349999999999999645 ) ) ;
#101 = CC_DESIGN_DATE_AND_TIME_ASSIGNMENT ( #90, #164, ( #82 ) ) ;
#102 = DIRECTION ( 'NONE',  ( 0.0000000000000000000, 0.0000000000000000000, 1.000000000000000000 ) ) ;
#103 = CARTESIAN_POINT ( 'NONE',  ( -0.7500000000000000000, 0.0000000000000000000, 0.0000000000000000000 ) ) ;
#104 = DIRECTION ( 'NONE',  ( 0.0000000000000000000, 0.0000000000000000000, -1.000000000000000000 ) ) ;
#105 = LOCAL_TIME ( 10, 2, 51.00000000000000000, #144 ) ;
#106 = ORGANIZATION ( 'UNSPECIFIED', 'UNSPECIFIED', '' ) ;
#107 = APPROVAL_ROLE ( '' ) ;
#108 = AXIS2_PLACEMENT_3D ( 'NONE', #103, #62, #20 ) ;
#109 = ORIENTED_EDGE ( 'NONE', *, *, #149, .F. ) ;
#110 = PRODUCT_DEFINITION_FORMATION_WITH_SPECIFIED_SOURCE ( 'ANY', '', #169, .NOT_KNOWN. ) ;
#111 = DATE_AND_TIME ( #137, #36 ) ;
#112 = VERTEX_POINT ( 'NONE', #138 ) ;
#113 = CALENDAR_DATE ( 2020, 9, 10 ) ;
#114 = CC_DESIGN_PERSON_AND_ORGANIZATION_ASSIGNMENT ( #147, #48, ( #23 ) ) ;
#115 = EDGE_LOOP ( 'NONE', ( #109, #173, #42, #132 ) ) ;
#116 = PERSON_AND_ORGANIZATION ( #154, #106 ) ;
#117 = DIRECTION ( 'NONE',  ( -1.000000000000000000, -0.0000000000000000000, -0.0000000000000000000 ) ) ;
#118 = APPROVAL_ROLE ( '' ) ;
#119 = CC_DESIGN_PERSON_AND_ORGANIZATION_ASSIGNMENT ( #116, #64, ( #169 ) ) ;
#120 = APPLICATION_CONTEXT ( 'configuration controlled 3d designs of mechanical parts and assemblies' ) ;
#121 = PRODUCT_DEFINITION_SHAPE ( 'NONE', 'NONE',  #82 ) ;
#122 = EDGE_LOOP ( 'NONE', ( #155, #58, #3, #18 ) ) ;
#123 = LINE ( 'NONE', #9, #50 ) ;
#124 = ORIENTED_EDGE ( 'NONE', *, *, #149, .T. ) ;
#125 = CC_DESIGN_PERSON_AND_ORGANIZATION_ASSIGNMENT ( #40, #129, ( #110 ) ) ;
#126 = DIRECTION ( 'NONE',  ( 1.000000000000000000, 0.0000000000000000000, 0.0000000000000000000 ) ) ;
#127 = DIRECTION ( 'NONE',  ( 1.000000000000000000, 0.0000000000000000000, 0.0000000000000000000 ) ) ;
#128 = APPROVAL ( #163, 'UNSPECIFIED' ) ;
#129 = PERSON_AND_ORGANIZATION_ROLE ( 'creator' ) ;
#130 = PERSON_AND_ORGANIZATION_ROLE ( 'design_supplier' ) ;
#131 = APPLICATION_PROTOCOL_DEFINITION ( 'international standard', 'config_control_design', 1994, #120 ) ;
#132 = ORIENTED_EDGE ( 'NONE', *, *, #140, .F. ) ;
#133 = PRODUCT_RELATED_PRODUCT_CATEGORY ( 'detail', '', ( #169 ) ) ;
#134 = CC_DESIGN_SECURITY_CLASSIFICATION ( #23, ( #110 ) ) ;
#135 = ADVANCED_FACE ( 'NONE', ( #26 ), #88, .T. ) ;
#136 = AXIS2_PLACEMENT_3D ( 'NONE', #91, #127, #45 ) ;
#137 = CALENDAR_DATE ( 2020, 9, 10 ) ;
#138 = CARTESIAN_POINT ( 'NONE',  ( -0.7500000000000000000, 0.0000000000000000000, 6.349999999999999645 ) ) ;
#139 = DATE_AND_TIME ( #71, #105 ) ;
#140 = EDGE_CURVE ( 'NONE', #39, #112, #98, .T. ) ;
#141 = DIRECTION ( 'NONE',  ( 0.0000000000000000000, 0.0000000000000000000, -1.000000000000000000 ) ) ;
#142 = CC_DESIGN_APPROVAL ( #59, ( #23 ) ) ;
#143 = DIRECTION ( 'NONE',  ( -1.000000000000000000, -0.0000000000000000000, -0.0000000000000000000 ) ) ;
#144 = COORDINATED_UNIVERSAL_TIME_OFFSET ( 5, 0, .BEHIND. ) ;
#145 = CLOSED_SHELL ( 'NONE', ( #28, #83, #135, #56 ) ) ;
#146 = CARTESIAN_POINT ( 'NONE',  ( 0.7500000000000000000, 0.0000000000000000000, 0.0000000000000000000 ) ) ;
#147 = PERSON_AND_ORGANIZATION ( #154, #106 ) ;
#148 = SECURITY_CLASSIFICATION_LEVEL ( 'unclassified' ) ;
#149 = EDGE_CURVE ( 'NONE', #35, #39, #52, .T. ) ;
#150 = APPROVAL_STATUS ( 'not_yet_approved' ) ;
#151 = EDGE_LOOP ( 'NONE', ( #5, #15 ) ) ;
#152 = MANIFOLD_SOLID_BREP ( 'Boss-Extrude1', #145 ) ;
#153 = APPROVAL ( #150, 'UNSPECIFIED' ) ;
#154 = PERSON ( 'UNSPECIFIED', 'UNSPECIFIED', 'UNSPECIFIED', ('UNSPECIFIED'), ('UNSPECIFIED'), ('UNSPECIFIED') ) ;
#155 = ORIENTED_EDGE ( 'NONE', *, *, #80, .F. ) ;
#156 = CALENDAR_DATE ( 2020, 9, 10 ) ;
#157 = CARTESIAN_POINT ( 'NONE',  ( 0.7500000000000000000, 0.0000000000000000000, 0.0000000000000000000 ) ) ;
#158 = EDGE_CURVE ( 'NONE', #97, #112, #70, .T. ) ;
#159 = PERSON_AND_ORGANIZATION ( #154, #106 ) ;
#160 = DIRECTION ( 'NONE',  ( 0.0000000000000000000, 0.0000000000000000000, -1.000000000000000000 ) ) ;
#161 = CIRCLE ( 'NONE', #66, 6.349999999999999645 ) ;
#162 = DIRECTION ( 'NONE',  ( -1.000000000000000000, -0.0000000000000000000, -0.0000000000000000000 ) ) ;
#163 = APPROVAL_STATUS ( 'not_yet_approved' ) ;
#164 = DATE_TIME_ROLE ( 'creation_date' ) ;
#165 = FACE_OUTER_BOUND ( 'NONE', #151, .T. ) ;
#166 = MECHANICAL_CONTEXT ( 'NONE', #120, 'mechanical' ) ;
#167 =( LENGTH_UNIT ( ) NAMED_UNIT ( * ) SI_UNIT ( .MILLI., .METRE. ) );
#168 = EDGE_CURVE ( 'NONE', #112, #97, #17, .T. ) ;
#169 = PRODUCT ( 'Web Model 46457_15987', 'Web Model 46457_15987', '', ( #166 ) ) ;
#170 = AXIS2_PLACEMENT_3D ( 'NONE', #12, #44, #141 ) ;
#171 = PERSON_AND_ORGANIZATION ( #154, #106 ) ;
#172 = ADVANCED_BREP_SHAPE_REPRESENTATION ( 'Web Model 46457_15987', ( #152, #68 ), #51 ) ;
#173 = ORIENTED_EDGE ( 'NONE', *, *, #80, .T. ) ;
#174 = CARTESIAN_POINT ( 'NONE',  ( 0.0000000000000000000, 0.0000000000000000000, 0.0000000000000000000 ) ) ;
#175 = CC_DESIGN_PERSON_AND_ORGANIZATION_ASSIGNMENT ( #6, #130, ( #110 ) ) ;
ENDSEC;
END-ISO-10303-21;
