ISO-10303-21;
HEADER;
FILE_DESCRIPTION (( 'STEP AP203' ),
    '1' );
FILE_NAME ('Web Model 17212_17214.step',
    '2021-04-05T17:57:08',
    ( '' ),
    ( '' ),
    'SwSTEP 2.0',
    'SolidWorks 2018',
    '' );
FILE_SCHEMA (( 'CONFIG_CONTROL_DESIGN' ));
ENDSEC;

DATA;
#1 = APPLICATION_PROTOCOL_DEFINITION ( 'international standard', 'config_control_design', 1994, #109 ) ;
#2 = APPROVAL_STATUS ( 'not_yet_approved' ) ;
#3 = CC_DESIGN_APPROVAL ( #78, ( #114 ) ) ;
#4 = LOCAL_TIME ( 13, 57, 8.000000000000000000, #151 ) ;
#5 = PERSON_AND_ORGANIZATION ( #170, #127 ) ;
#6 = MANIFOLD_SOLID_BREP ( 'Boss-Extrude1', #192 ) ;
#7 = CARTESIAN_POINT ( 'NONE',  ( 0.000000000000000000, 0.000000000000000000, 1.000000000000000000 ) ) ;
#8 = EDGE_CURVE ( 'NONE', #234, #47, #63, .T. ) ;
#9 = DIRECTION ( 'NONE',  ( 1.000000000000000000, 0.000000000000000000, 0.000000000000000000 ) ) ;
#10 = DIRECTION ( 'NONE',  ( 1.000000000000000000, 0.000000000000000000, 0.000000000000000000 ) ) ;
#11 = ORIENTED_EDGE ( 'NONE', *, *, #115, .F. ) ;
#12 = CARTESIAN_POINT ( 'NONE',  ( 0.000000000000000000, 0.000000000000000000, 0.000000000000000000 ) ) ;
#13 = ADVANCED_FACE ( 'NONE', ( #126, #227 ), #71, .T. ) ;
#14 = DIRECTION ( 'NONE',  ( 1.000000000000000000, 0.000000000000000000, 0.000000000000000000 ) ) ;
#15 = LINE ( 'NONE', #76, #59 ) ;
#16 = CC_DESIGN_PERSON_AND_ORGANIZATION_ASSIGNMENT ( #195, #62, ( #114 ) ) ;
#17 = CARTESIAN_POINT ( 'NONE',  ( 3.174999999999999822, 3.888253587292846081E-16, 1.000000000000000000 ) ) ;
#18 = AXIS2_PLACEMENT_3D ( 'NONE', #118, #141, #159 ) ;
#19 = APPROVAL_PERSON_ORGANIZATION ( #181, #204, #20 ) ;
#20 = APPROVAL_ROLE ( '' ) ;
#21 = EDGE_LOOP ( 'NONE', ( #130, #52 ) ) ;
#22 = PRODUCT_DEFINITION_SHAPE ( 'NONE', 'NONE',  #114 ) ;
#23 = FACE_OUTER_BOUND ( 'NONE', #232, .T. ) ;
#24 = PRODUCT_DEFINITION_FORMATION_WITH_SPECIFIED_SOURCE ( 'ANY', '', #80, .NOT_KNOWN. ) ;
#25 = FACE_OUTER_BOUND ( 'NONE', #241, .T. ) ;
#26 = VERTEX_POINT ( 'NONE', #120 ) ;
#27 = COORDINATED_UNIVERSAL_TIME_OFFSET ( 5, 0, .BEHIND. ) ;
#28 = CC_DESIGN_APPROVAL ( #54, ( #24 ) ) ;
#29 = DIRECTION ( 'NONE',  ( 1.000000000000000000, 0.000000000000000000, 0.000000000000000000 ) ) ;
#30 = CIRCLE ( 'NONE', #171, 3.174999999999999822 ) ;
#31 = DIRECTION ( 'NONE',  ( -1.000000000000000000, 0.000000000000000000, 0.000000000000000000 ) ) ;
#32 = CC_DESIGN_SECURITY_CLASSIFICATION ( #101, ( #24 ) ) ;
#33 = APPROVAL_PERSON_ORGANIZATION ( #83, #78, #223 ) ;
#34 = AXIS2_PLACEMENT_3D ( 'NONE', #69, #142, #29 ) ;
#35 = DIRECTION ( 'NONE',  ( 1.000000000000000000, 0.000000000000000000, 0.000000000000000000 ) ) ;
#36 = ORIENTED_EDGE ( 'NONE', *, *, #61, .F. ) ;
#37 = CARTESIAN_POINT ( 'NONE',  ( 0.000000000000000000, 0.000000000000000000, 0.000000000000000000 ) ) ;
#38 = ADVANCED_FACE ( 'NONE', ( #178 ), #128, .F. ) ;
#39 =( LENGTH_UNIT ( ) NAMED_UNIT ( * ) SI_UNIT ( .MILLI., .METRE. ) );
#40 = VECTOR ( 'NONE', #179, 1000.000000000000000 ) ;
#41 = ORIENTED_EDGE ( 'NONE', *, *, #8, .T. ) ;
#42 = DIRECTION ( 'NONE',  ( -0.000000000000000000, -0.000000000000000000, -1.000000000000000000 ) ) ;
#43 = ORIENTED_EDGE ( 'NONE', *, *, #140, .F. ) ;
#44 = CC_DESIGN_PERSON_AND_ORGANIZATION_ASSIGNMENT ( #180, #91, ( #80 ) ) ;
#45 = ORIENTED_EDGE ( 'NONE', *, *, #214, .F. ) ;
#46 = AXIS2_PLACEMENT_3D ( 'NONE', #37, #67, #70 ) ;
#47 = VERTEX_POINT ( 'NONE', #216 ) ;
#48 = FACE_BOUND ( 'NONE', #21, .T. ) ;
#49 = CALENDAR_DATE ( 2021, 5, 4 ) ;
#50 = PERSON_AND_ORGANIZATION ( #170, #127 ) ;
#51 = PRODUCT_RELATED_PRODUCT_CATEGORY ( 'detail', '', ( #80 ) ) ;
#52 = ORIENTED_EDGE ( 'NONE', *, *, #196, .T. ) ;
#53 = LOCAL_TIME ( 13, 57, 8.000000000000000000, #148 ) ;
#54 = APPROVAL ( #64, 'UNSPECIFIED' ) ;
#55 = CARTESIAN_POINT ( 'NONE',  ( 3.174999999999999822, 3.888253587292846081E-16, 0.000000000000000000 ) ) ;
#56 = DIRECTION ( 'NONE',  ( -0.000000000000000000, -0.000000000000000000, -1.000000000000000000 ) ) ;
#57 = CARTESIAN_POINT ( 'NONE',  ( 0.000000000000000000, 0.000000000000000000, 0.000000000000000000 ) ) ;
#58 = CARTESIAN_POINT ( 'NONE',  ( 0.000000000000000000, 0.000000000000000000, 1.000000000000000000 ) ) ;
#59 = VECTOR ( 'NONE', #162, 1000.000000000000000 ) ;
#60 = CC_DESIGN_APPROVAL ( #204, ( #101 ) ) ;
#61 = EDGE_CURVE ( 'NONE', #117, #194, #173, .T. ) ;
#62 = PERSON_AND_ORGANIZATION_ROLE ( 'creator' ) ;
#63 = CIRCLE ( 'NONE', #211, 12.69999999999999929 ) ;
#64 = APPROVAL_STATUS ( 'not_yet_approved' ) ;
#65 = CC_DESIGN_PERSON_AND_ORGANIZATION_ASSIGNMENT ( #154, #193, ( #24 ) ) ;
#66 = ORIENTED_EDGE ( 'NONE', *, *, #239, .F. ) ;
#67 = DIRECTION ( 'NONE',  ( 0.000000000000000000, 0.000000000000000000, 1.000000000000000000 ) ) ;
#68 = AXIS2_PLACEMENT_3D ( 'NONE', #7, #56, #31 ) ;
#69 = CARTESIAN_POINT ( 'NONE',  ( 0.000000000000000000, 0.000000000000000000, 1.000000000000000000 ) ) ;
#70 = DIRECTION ( 'NONE',  ( 1.000000000000000000, 0.000000000000000000, 0.000000000000000000 ) ) ;
#71 = PLANE ( 'NONE',  #105 ) ;
#72 = ORIENTED_EDGE ( 'NONE', *, *, #115, .T. ) ;
#73 = DIRECTION ( 'NONE',  ( 1.000000000000000000, 0.000000000000000000, -0.000000000000000000 ) ) ;
#74 = DIRECTION ( 'NONE',  ( -1.000000000000000000, 0.000000000000000000, 0.000000000000000000 ) ) ;
#75 = CARTESIAN_POINT ( 'NONE',  ( 0.000000000000000000, 0.000000000000000000, 1.000000000000000000 ) ) ;
#76 = CARTESIAN_POINT ( 'NONE',  ( -12.69999999999999929, 0.000000000000000000, 1.000000000000000000 ) ) ;
#77 = APPROVAL_ROLE ( '' ) ;
#78 = APPROVAL ( #2, 'UNSPECIFIED' ) ;
#79 = CIRCLE ( 'NONE', #221, 12.69999999999999929 ) ;
#80 = PRODUCT ( 'Web Model 17212_17214', 'Web Model 17212_17214', '', ( #244 ) ) ;
#81 = AXIS2_PLACEMENT_3D ( 'NONE', #57, #185, #73 ) ;
#82 = APPROVAL_PERSON_ORGANIZATION ( #50, #54, #77 ) ;
#83 = PERSON_AND_ORGANIZATION ( #170, #127 ) ;
#84 = EDGE_CURVE ( 'NONE', #26, #146, #121, .T. ) ;
#85 = CARTESIAN_POINT ( 'NONE',  ( 0.000000000000000000, 0.000000000000000000, 1.000000000000000000 ) ) ;
#86 = ORIENTED_EDGE ( 'NONE', *, *, #182, .T. ) ;
#87 = CC_DESIGN_PERSON_AND_ORGANIZATION_ASSIGNMENT ( #156, #112, ( #24 ) ) ;
#88 = ORIENTED_EDGE ( 'NONE', *, *, #84, .F. ) ;
#89 = DIRECTION ( 'NONE',  ( 0.000000000000000000, 0.000000000000000000, 1.000000000000000000 ) ) ;
#90 = DIRECTION ( 'NONE',  ( 1.000000000000000000, 0.000000000000000000, 0.000000000000000000 ) ) ;
#91 = PERSON_AND_ORGANIZATION_ROLE ( 'design_owner' ) ;
#92 = AXIS2_PLACEMENT_3D ( 'NONE', #58, #42, #74 ) ;
#93 = ORIENTED_EDGE ( 'NONE', *, *, #153, .F. ) ;
#94 = DIRECTION ( 'NONE',  ( 1.000000000000000000, 0.000000000000000000, 0.000000000000000000 ) ) ;
#95 = DATE_AND_TIME ( #139, #53 ) ;
#96 = PERSON_AND_ORGANIZATION_ROLE ( 'classification_officer' ) ;
#97 = EDGE_CURVE ( 'NONE', #194, #146, #168, .T. ) ;
#98 = DATE_TIME_ROLE ( 'creation_date' ) ;
#99 = ADVANCED_BREP_SHAPE_REPRESENTATION ( 'Web Model 17212_17214', ( #6, #217 ), #103 ) ;
#100 = ORIENTED_EDGE ( 'NONE', *, *, #182, .F. ) ;
#101 = SECURITY_CLASSIFICATION ( '', '', #210 ) ;
#102 = CARTESIAN_POINT ( 'NONE',  ( -3.174999999999999822, 0.000000000000000000, 1.000000000000000000 ) ) ;
#103 =( GEOMETRIC_REPRESENTATION_CONTEXT ( 3 ) GLOBAL_UNCERTAINTY_ASSIGNED_CONTEXT ( ( #188 ) ) GLOBAL_UNIT_ASSIGNED_CONTEXT ( ( #39, #203, #108 ) ) REPRESENTATION_CONTEXT ( 'NONE', 'WORKASPACE' ) );
#104 = DIRECTION ( 'NONE',  ( -1.000000000000000000, 0.000000000000000000, 0.000000000000000000 ) ) ;
#105 = AXIS2_PLACEMENT_3D ( 'NONE', #85, #160, #106 ) ;
#106 = DIRECTION ( 'NONE',  ( 1.000000000000000000, 0.000000000000000000, -0.000000000000000000 ) ) ;
#107 = ORIENTED_EDGE ( 'NONE', *, *, #214, .T. ) ;
#108 =( NAMED_UNIT ( * ) SI_UNIT ( $, .STERADIAN. ) SOLID_ANGLE_UNIT ( ) );
#109 = APPLICATION_CONTEXT ( 'configuration controlled 3d designs of mechanical parts and assemblies' ) ;
#110 = LOCAL_TIME ( 13, 57, 8.000000000000000000, #174 ) ;
#111 = CARTESIAN_POINT ( 'NONE',  ( 0.000000000000000000, 0.000000000000000000, 1.000000000000000000 ) ) ;
#112 = PERSON_AND_ORGANIZATION_ROLE ( 'design_supplier' ) ;
#113 = ORIENTED_EDGE ( 'NONE', *, *, #97, .T. ) ;
#114 = PRODUCT_DEFINITION ( 'UNKNOWN', '', #24, #122 ) ;
#115 = EDGE_CURVE ( 'NONE', #47, #234, #152, .T. ) ;
#116 = APPROVAL_DATE_TIME ( #231, #204 ) ;
#117 = VERTEX_POINT ( 'NONE', #102 ) ;
#118 = CARTESIAN_POINT ( 'NONE',  ( 0.000000000000000000, 0.000000000000000000, 1.000000000000000000 ) ) ;
#119 = DATE_AND_TIME ( #166, #218 ) ;
#120 = CARTESIAN_POINT ( 'NONE',  ( -3.174999999999999822, 0.000000000000000000, 0.000000000000000000 ) ) ;
#121 = CIRCLE ( 'NONE', #46, 3.174999999999999822 ) ;
#122 = DESIGN_CONTEXT ( 'detailed design', #109, 'design' ) ;
#123 = CARTESIAN_POINT ( 'NONE',  ( 12.69999999999999929, 1.555301434917138433E-15, 0.000000000000000000 ) ) ;
#124 = EDGE_LOOP ( 'NONE', ( #36, #93 ) ) ;
#125 = AXIS2_PLACEMENT_3D ( 'NONE', #243, #145, #10 ) ;
#126 = FACE_OUTER_BOUND ( 'NONE', #213, .T. ) ;
#127 = ORGANIZATION ( 'UNSPECIFIED', 'UNSPECIFIED', '' ) ;
#128 = CYLINDRICAL_SURFACE ( 'NONE', #68, 3.174999999999999822 ) ;
#129 = ORIENTED_EDGE ( 'NONE', *, *, #196, .F. ) ;
#130 = ORIENTED_EDGE ( 'NONE', *, *, #84, .T. ) ;
#131 = ORIENTED_EDGE ( 'NONE', *, *, #140, .T. ) ;
#132 = VERTEX_POINT ( 'NONE', #201 ) ;
#133 = CYLINDRICAL_SURFACE ( 'NONE', #92, 3.174999999999999822 ) ;
#134 = SHAPE_DEFINITION_REPRESENTATION ( #22, #99 ) ;
#135 = ORIENTED_EDGE ( 'NONE', *, *, #167, .F. ) ;
#136 = LINE ( 'NONE', #191, #143 ) ;
#137 = ORIENTED_EDGE ( 'NONE', *, *, #61, .T. ) ;
#138 = CARTESIAN_POINT ( 'NONE',  ( 0.000000000000000000, 0.000000000000000000, 0.000000000000000000 ) ) ;
#139 = CALENDAR_DATE ( 2021, 5, 4 ) ;
#140 = EDGE_CURVE ( 'NONE', #132, #197, #186, .T. ) ;
#141 = DIRECTION ( 'NONE',  ( 0.000000000000000000, 0.000000000000000000, 1.000000000000000000 ) ) ;
#142 = DIRECTION ( 'NONE',  ( 0.000000000000000000, 0.000000000000000000, 1.000000000000000000 ) ) ;
#143 = VECTOR ( 'NONE', #164, 1000.000000000000000 ) ;
#144 = CIRCLE ( 'NONE', #125, 3.174999999999999822 ) ;
#145 = DIRECTION ( 'NONE',  ( 0.000000000000000000, 0.000000000000000000, 1.000000000000000000 ) ) ;
#146 = VERTEX_POINT ( 'NONE', #55 ) ;
#147 = CARTESIAN_POINT ( 'NONE',  ( -3.174999999999999822, 0.000000000000000000, 1.000000000000000000 ) ) ;
#148 = COORDINATED_UNIVERSAL_TIME_OFFSET ( 5, 0, .BEHIND. ) ;
#149 = DIRECTION ( 'NONE',  ( 0.000000000000000000, 0.000000000000000000, 1.000000000000000000 ) ) ;
#150 = APPROVAL_STATUS ( 'not_yet_approved' ) ;
#151 = COORDINATED_UNIVERSAL_TIME_OFFSET ( 5, 0, .BEHIND. ) ;
#152 = CIRCLE ( 'NONE', #158, 12.69999999999999929 ) ;
#153 = EDGE_CURVE ( 'NONE', #194, #117, #30, .T. ) ;
#154 = PERSON_AND_ORGANIZATION ( #170, #127 ) ;
#155 = ORIENTED_EDGE ( 'NONE', *, *, #239, .T. ) ;
#156 = PERSON_AND_ORGANIZATION ( #170, #127 ) ;
#157 = CARTESIAN_POINT ( 'NONE',  ( 0.000000000000000000, 0.000000000000000000, 1.000000000000000000 ) ) ;
#158 = AXIS2_PLACEMENT_3D ( 'NONE', #138, #89, #35 ) ;
#159 = DIRECTION ( 'NONE',  ( 1.000000000000000000, 0.000000000000000000, 0.000000000000000000 ) ) ;
#160 = DIRECTION ( 'NONE',  ( 0.000000000000000000, 0.000000000000000000, 1.000000000000000000 ) ) ;
#161 = CARTESIAN_POINT ( 'NONE',  ( 12.69999999999999929, 1.555301434917138433E-15, 1.000000000000000000 ) ) ;
#162 = DIRECTION ( 'NONE',  ( -0.000000000000000000, -0.000000000000000000, -1.000000000000000000 ) ) ;
#163 = ADVANCED_FACE ( 'NONE', ( #23 ), #184, .T. ) ;
#164 = DIRECTION ( 'NONE',  ( -0.000000000000000000, -0.000000000000000000, -1.000000000000000000 ) ) ;
#165 = DIRECTION ( 'NONE',  ( 0.000000000000000000, 0.000000000000000000, 1.000000000000000000 ) ) ;
#166 = CALENDAR_DATE ( 2021, 5, 4 ) ;
#167 = EDGE_CURVE ( 'NONE', #197, #132, #79, .T. ) ;
#168 = LINE ( 'NONE', #177, #40 ) ;
#169 = FACE_OUTER_BOUND ( 'NONE', #189, .T. ) ;
#170 = PERSON ( 'UNSPECIFIED', 'UNSPECIFIED', 'UNSPECIFIED', ('UNSPECIFIED'), ('UNSPECIFIED'), ('UNSPECIFIED') ) ;
#171 = AXIS2_PLACEMENT_3D ( 'NONE', #240, #165, #90 ) ;
#172 = CALENDAR_DATE ( 2021, 5, 4 ) ;
#173 = CIRCLE ( 'NONE', #18, 3.174999999999999822 ) ;
#174 = COORDINATED_UNIVERSAL_TIME_OFFSET ( 5, 0, .BEHIND. ) ;
#175 = COORDINATED_UNIVERSAL_TIME_OFFSET ( 5, 0, .BEHIND. ) ;
#176 = ORIENTED_EDGE ( 'NONE', *, *, #97, .F. ) ;
#177 = CARTESIAN_POINT ( 'NONE',  ( 3.174999999999999822, 3.888253587292846081E-16, 1.000000000000000000 ) ) ;
#178 = FACE_OUTER_BOUND ( 'NONE', #187, .T. ) ;
#179 = DIRECTION ( 'NONE',  ( -0.000000000000000000, -0.000000000000000000, -1.000000000000000000 ) ) ;
#180 = PERSON_AND_ORGANIZATION ( #170, #127 ) ;
#181 = PERSON_AND_ORGANIZATION ( #170, #127 ) ;
#182 = EDGE_CURVE ( 'NONE', #197, #234, #136, .T. ) ;
#183 = ADVANCED_FACE ( 'NONE', ( #169 ), #222, .T. ) ;
#184 = CYLINDRICAL_SURFACE ( 'NONE', #209, 12.69999999999999929 ) ;
#185 = DIRECTION ( 'NONE',  ( 0.000000000000000000, 0.000000000000000000, 1.000000000000000000 ) ) ;
#186 = CIRCLE ( 'NONE', #34, 12.69999999999999929 ) ;
#187 = EDGE_LOOP ( 'NONE', ( #176, #229, #107, #129 ) ) ;
#188 = UNCERTAINTY_MEASURE_WITH_UNIT (LENGTH_MEASURE( 1.000000000000000082E-05 ), #39, 'distance_accuracy_value', 'NONE');
#189 = EDGE_LOOP ( 'NONE', ( #135, #86, #41, #66 ) ) ;
#190 = FACE_OUTER_BOUND ( 'NONE', #228, .T. ) ;
#191 = CARTESIAN_POINT ( 'NONE',  ( 12.69999999999999929, 1.555301434917138433E-15, 1.000000000000000000 ) ) ;
#192 = CLOSED_SHELL ( 'NONE', ( #246, #183, #13, #205, #163, #38 ) ) ;
#193 = PERSON_AND_ORGANIZATION_ROLE ( 'creator' ) ;
#194 = VERTEX_POINT ( 'NONE', #17 ) ;
#195 = PERSON_AND_ORGANIZATION ( #170, #127 ) ;
#196 = EDGE_CURVE ( 'NONE', #146, #26, #144, .T. ) ;
#197 = VERTEX_POINT ( 'NONE', #161 ) ;
#198 = APPROVAL_DATE_TIME ( #206, #78 ) ;
#199 = DIRECTION ( 'NONE',  ( -0.000000000000000000, -0.000000000000000000, -1.000000000000000000 ) ) ;
#200 = LOCAL_TIME ( 13, 57, 8.000000000000000000, #27 ) ;
#201 = CARTESIAN_POINT ( 'NONE',  ( -12.69999999999999929, 0.000000000000000000, 1.000000000000000000 ) ) ;
#202 = PLANE ( 'NONE',  #81 ) ;
#203 =( NAMED_UNIT ( * ) PLANE_ANGLE_UNIT ( ) SI_UNIT ( $, .RADIAN. ) );
#204 = APPROVAL ( #150, 'UNSPECIFIED' ) ;
#205 = ADVANCED_FACE ( 'NONE', ( #25, #48 ), #202, .F. ) ;
#206 = DATE_AND_TIME ( #172, #4 ) ;
#207 = CALENDAR_DATE ( 2021, 5, 4 ) ;
#208 = APPLICATION_CONTEXT ( 'configuration controlled 3d designs of mechanical parts and assemblies' ) ;
#209 = AXIS2_PLACEMENT_3D ( 'NONE', #157, #199, #104 ) ;
#210 = SECURITY_CLASSIFICATION_LEVEL ( 'unclassified' ) ;
#211 = AXIS2_PLACEMENT_3D ( 'NONE', #242, #236, #9 ) ;
#212 = DATE_TIME_ROLE ( 'classification_date' ) ;
#213 = EDGE_LOOP ( 'NONE', ( #131, #226 ) ) ;
#214 = EDGE_CURVE ( 'NONE', #117, #26, #237, .T. ) ;
#215 = CC_DESIGN_PERSON_AND_ORGANIZATION_ASSIGNMENT ( #5, #96, ( #101 ) ) ;
#216 = CARTESIAN_POINT ( 'NONE',  ( -12.69999999999999929, 0.000000000000000000, 0.000000000000000000 ) ) ;
#217 = AXIS2_PLACEMENT_3D ( 'NONE', #12, #220, #94 ) ;
#218 = LOCAL_TIME ( 13, 57, 8.000000000000000000, #175 ) ;
#219 = DIRECTION ( 'NONE',  ( -0.000000000000000000, -0.000000000000000000, -1.000000000000000000 ) ) ;
#220 = DIRECTION ( 'NONE',  ( 0.000000000000000000, 0.000000000000000000, 1.000000000000000000 ) ) ;
#221 = AXIS2_PLACEMENT_3D ( 'NONE', #75, #149, #14 ) ;
#222 = CYLINDRICAL_SURFACE ( 'NONE', #233, 12.69999999999999929 ) ;
#223 = APPROVAL_ROLE ( '' ) ;
#224 = APPROVAL_DATE_TIME ( #238, #54 ) ;
#225 = CC_DESIGN_DATE_AND_TIME_ASSIGNMENT ( #119, #212, ( #101 ) ) ;
#226 = ORIENTED_EDGE ( 'NONE', *, *, #167, .T. ) ;
#227 = FACE_BOUND ( 'NONE', #124, .T. ) ;
#228 = EDGE_LOOP ( 'NONE', ( #137, #113, #88, #45 ) ) ;
#229 = ORIENTED_EDGE ( 'NONE', *, *, #153, .T. ) ;
#230 = CC_DESIGN_DATE_AND_TIME_ASSIGNMENT ( #95, #98, ( #114 ) ) ;
#231 = DATE_AND_TIME ( #207, #200 ) ;
#232 = EDGE_LOOP ( 'NONE', ( #100, #43, #155, #72 ) ) ;
#233 = AXIS2_PLACEMENT_3D ( 'NONE', #111, #219, #247 ) ;
#234 = VERTEX_POINT ( 'NONE', #123 ) ;
#235 = ORIENTED_EDGE ( 'NONE', *, *, #8, .F. ) ;
#236 = DIRECTION ( 'NONE',  ( 0.000000000000000000, 0.000000000000000000, 1.000000000000000000 ) ) ;
#237 = LINE ( 'NONE', #147, #248 ) ;
#238 = DATE_AND_TIME ( #49, #110 ) ;
#239 = EDGE_CURVE ( 'NONE', #132, #47, #15, .T. ) ;
#240 = CARTESIAN_POINT ( 'NONE',  ( 0.000000000000000000, 0.000000000000000000, 1.000000000000000000 ) ) ;
#241 = EDGE_LOOP ( 'NONE', ( #11, #235 ) ) ;
#242 = CARTESIAN_POINT ( 'NONE',  ( 0.000000000000000000, 0.000000000000000000, 0.000000000000000000 ) ) ;
#243 = CARTESIAN_POINT ( 'NONE',  ( 0.000000000000000000, 0.000000000000000000, 0.000000000000000000 ) ) ;
#244 = MECHANICAL_CONTEXT ( 'NONE', #208, 'mechanical' ) ;
#245 = DIRECTION ( 'NONE',  ( -0.000000000000000000, -0.000000000000000000, -1.000000000000000000 ) ) ;
#246 = ADVANCED_FACE ( 'NONE', ( #190 ), #133, .F. ) ;
#247 = DIRECTION ( 'NONE',  ( -1.000000000000000000, 0.000000000000000000, 0.000000000000000000 ) ) ;
#248 = VECTOR ( 'NONE', #245, 1000.000000000000000 ) ;
#249 = APPLICATION_PROTOCOL_DEFINITION ( 'international standard', 'config_control_design', 1994, #208 ) ;
ENDSEC;
END-ISO-10303-21;
