ISO-10303-21;
HEADER;
FILE_DESCRIPTION (( 'STEP AP203' ),
    '1' );
FILE_NAME ('36252C_36567.step',
    '2017-07-20T12:40:38',
    ( '' ),
    ( '' ),
    'SwSTEP 2.0',
    'SolidWorks 2016',
    '' );
FILE_SCHEMA (( 'CONFIG_CONTROL_DESIGN' ));
ENDSEC;

DATA;
#1 = AXIS2_PLACEMENT_3D ( 'NONE', #102, #77, #35 ) ;
#2 = DIRECTION ( 'NONE',  ( 0.0000000000000000000, 0.0000000000000000000, 1.000000000000000000 ) ) ;
#3 = UNCERTAINTY_MEASURE_WITH_UNIT (LENGTH_MEASURE( 1.000000000000000100E-005 ), #69, 'distance_accuracy_value', 'NONE');
#4 = PERSON_AND_ORGANIZATION ( #26, #85 ) ;
#5 = ORIENTED_EDGE ( 'NONE', *, *, #52, .T. ) ;
#6 = ORIENTED_EDGE ( 'NONE', *, *, #42, .T. ) ;
#7 = PRODUCT_DEFINITION_FORMATION_WITH_SPECIFIED_SOURCE ( 'ANY', '', #17, .NOT_KNOWN. ) ;
#8 = LOCAL_TIME ( 8, 40, 38.00000000000000000, #115 ) ;
#9 = CARTESIAN_POINT ( 'NONE',  ( 0.0000000000000000000, 0.0000000000000000000, 0.5000000000000000000 ) ) ;
#10 =( NAMED_UNIT ( * ) SI_UNIT ( $, .STERADIAN. ) SOLID_ANGLE_UNIT ( ) );
#11 = AXIS2_PLACEMENT_3D ( 'NONE', #159, #173, #88 ) ;
#12 = AXIS2_PLACEMENT_3D ( 'NONE', #39, #89, #96 ) ;
#13 = ORIENTED_EDGE ( 'NONE', *, *, #57, .F. ) ;
#14 = CALENDAR_DATE ( 2017, 20, 7 ) ;
#15 = DIRECTION ( 'NONE',  ( -1.000000000000000000, 0.0000000000000000000, 0.0000000000000000000 ) ) ;
#16 = AXIS2_PLACEMENT_3D ( 'NONE', #70, #153, #94 ) ;
#17 = PRODUCT ( '36252C_36567', '36252C_36567', '', ( #63 ) ) ;
#18 = PERSON_AND_ORGANIZATION ( #26, #85 ) ;
#19 = VERTEX_POINT ( 'NONE', #103 ) ;
#20 = DATE_AND_TIME ( #40, #30 ) ;
#21 = AXIS2_PLACEMENT_3D ( 'NONE', #152, #2, #84 ) ;
#22 = MANIFOLD_SOLID_BREP ( 'Boss-Extrude1', #44 ) ;
#23 = COORDINATED_UNIVERSAL_TIME_OFFSET ( 5, 0, .BEHIND. ) ;
#24 = EDGE_LOOP ( 'NONE', ( #120, #127 ) ) ;
#25 = PERSON_AND_ORGANIZATION ( #26, #85 ) ;
#26 = PERSON ( 'UNSPECIFIED', 'UNSPECIFIED', 'UNSPECIFIED', ('UNSPECIFIED'), ('UNSPECIFIED'), ('UNSPECIFIED') ) ;
#27 = PERSON_AND_ORGANIZATION_ROLE ( 'creator' ) ;
#28 = APPROVAL_DATE_TIME ( #20, #65 ) ;
#29 = DATE_AND_TIME ( #14, #61 ) ;
#30 = LOCAL_TIME ( 8, 40, 38.00000000000000000, #23 ) ;
#31 = APPROVAL_DATE_TIME ( #146, #45 ) ;
#32 = CC_DESIGN_APPROVAL ( #45, ( #156 ) ) ;
#33 = PRODUCT_DEFINITION_SHAPE ( 'NONE', 'NONE',  #156 ) ;
#34 = EDGE_CURVE ( 'NONE', #121, #82, #129, .T. ) ;
#35 = DIRECTION ( 'NONE',  ( 1.000000000000000000, 0.0000000000000000000, 0.0000000000000000000 ) ) ;
#36 = APPROVAL_PERSON_ORGANIZATION ( #18, #149, #141 ) ;
#37 = PERSON_AND_ORGANIZATION ( #26, #85 ) ;
#38 = PERSON_AND_ORGANIZATION ( #26, #85 ) ;
#39 = CARTESIAN_POINT ( 'NONE',  ( 0.0000000000000000000, 0.0000000000000000000, -0.5000000000000000000 ) ) ;
#40 = CALENDAR_DATE ( 2017, 20, 7 ) ;
#41 = ORIENTED_EDGE ( 'NONE', *, *, #43, .F. ) ;
#42 = EDGE_CURVE ( 'NONE', #82, #19, #134, .T. ) ;
#43 = EDGE_CURVE ( 'NONE', #121, #50, #140, .T. ) ;
#44 = CLOSED_SHELL ( 'NONE', ( #59, #68, #164, #116 ) ) ;
#45 = APPROVAL ( #175, 'UNSPECIFIED' ) ;
#46 = EDGE_CURVE ( 'NONE', #50, #19, #73, .T. ) ;
#47 =( GEOMETRIC_REPRESENTATION_CONTEXT ( 3 ) GLOBAL_UNCERTAINTY_ASSIGNED_CONTEXT ( ( #3 ) ) GLOBAL_UNIT_ASSIGNED_CONTEXT ( ( #69, #160, #10 ) ) REPRESENTATION_CONTEXT ( 'NONE', 'WORKASPACE' ) );
#48 = LOCAL_TIME ( 8, 40, 38.00000000000000000, #78 ) ;
#49 = PERSON_AND_ORGANIZATION_ROLE ( 'design_supplier' ) ;
#50 = VERTEX_POINT ( 'NONE', #97 ) ;
#51 = LOCAL_TIME ( 8, 40, 38.00000000000000000, #53 ) ;
#52 = EDGE_CURVE ( 'NONE', #19, #50, #151, .T. ) ;
#53 = COORDINATED_UNIVERSAL_TIME_OFFSET ( 5, 0, .BEHIND. ) ;
#54 = CALENDAR_DATE ( 2017, 20, 7 ) ;
#55 = CC_DESIGN_PERSON_AND_ORGANIZATION_ASSIGNMENT ( #4, #106, ( #17 ) ) ;
#56 = ORIENTED_EDGE ( 'NONE', *, *, #43, .T. ) ;
#57 = EDGE_CURVE ( 'NONE', #82, #121, #154, .T. ) ;
#58 = DATE_AND_TIME ( #54, #51 ) ;
#59 = ADVANCED_FACE ( 'NONE', ( #90 ), #130, .T. ) ;
#60 = CYLINDRICAL_SURFACE ( 'NONE', #76, 6.250000000000000000 ) ;
#61 = LOCAL_TIME ( 8, 40, 38.00000000000000000, #158 ) ;
#62 = PERSON_AND_ORGANIZATION ( #26, #85 ) ;
#63 = MECHANICAL_CONTEXT ( 'NONE', #142, 'mechanical' ) ;
#64 = CARTESIAN_POINT ( 'NONE',  ( 6.250000000000000000, 7.654042494670957600E-016, 0.5000000000000000000 ) ) ;
#65 = APPROVAL ( #124, 'UNSPECIFIED' ) ;
#66 = PERSON_AND_ORGANIZATION ( #26, #85 ) ;
#67 = PLANE ( 'NONE',  #107 ) ;
#68 = ADVANCED_FACE ( 'NONE', ( #148 ), #60, .T. ) ;
#69 =( LENGTH_UNIT ( ) NAMED_UNIT ( * ) SI_UNIT ( .MILLI., .METRE. ) );
#70 = CARTESIAN_POINT ( 'NONE',  ( 0.0000000000000000000, 0.0000000000000000000, 0.5000000000000000000 ) ) ;
#71 = FACE_OUTER_BOUND ( 'NONE', #172, .T. ) ;
#72 = CALENDAR_DATE ( 2017, 20, 7 ) ;
#73 = CIRCLE ( 'NONE', #12, 6.250000000000000000 ) ;
#74 = APPROVAL_PERSON_ORGANIZATION ( #38, #65, #126 ) ;
#75 = ADVANCED_BREP_SHAPE_REPRESENTATION ( '36252C_36567', ( #22, #11 ), #47 ) ;
#76 = AXIS2_PLACEMENT_3D ( 'NONE', #125, #95, #15 ) ;
#77 = DIRECTION ( 'NONE',  ( 0.0000000000000000000, 0.0000000000000000000, 1.000000000000000000 ) ) ;
#78 = COORDINATED_UNIVERSAL_TIME_OFFSET ( 5, 0, .BEHIND. ) ;
#79 = PERSON_AND_ORGANIZATION_ROLE ( 'classification_officer' ) ;
#80 = DIRECTION ( 'NONE',  ( -0.0000000000000000000, -0.0000000000000000000, -1.000000000000000000 ) ) ;
#81 = FACE_OUTER_BOUND ( 'NONE', #24, .T. ) ;
#82 = VERTEX_POINT ( 'NONE', #112 ) ;
#83 = PRODUCT_RELATED_PRODUCT_CATEGORY ( 'detail', '', ( #17 ) ) ;
#84 = DIRECTION ( 'NONE',  ( 1.000000000000000000, 0.0000000000000000000, 0.0000000000000000000 ) ) ;
#85 = ORGANIZATION ( 'UNSPECIFIED', 'UNSPECIFIED', '' ) ;
#86 = CARTESIAN_POINT ( 'NONE',  ( -6.250000000000000000, 0.0000000000000000000, 0.5000000000000000000 ) ) ;
#87 = DATE_TIME_ROLE ( 'creation_date' ) ;
#88 = DIRECTION ( 'NONE',  ( 1.000000000000000000, 0.0000000000000000000, 0.0000000000000000000 ) ) ;
#89 = DIRECTION ( 'NONE',  ( 0.0000000000000000000, 0.0000000000000000000, 1.000000000000000000 ) ) ;
#90 = FACE_OUTER_BOUND ( 'NONE', #128, .T. ) ;
#91 = CC_DESIGN_APPROVAL ( #65, ( #7 ) ) ;
#92 = DIRECTION ( 'NONE',  ( 1.000000000000000000, 0.0000000000000000000, -0.0000000000000000000 ) ) ;
#93 = SECURITY_CLASSIFICATION_LEVEL ( 'unclassified' ) ;
#94 = DIRECTION ( 'NONE',  ( 1.000000000000000000, 0.0000000000000000000, 0.0000000000000000000 ) ) ;
#95 = DIRECTION ( 'NONE',  ( -0.0000000000000000000, -0.0000000000000000000, -1.000000000000000000 ) ) ;
#96 = DIRECTION ( 'NONE',  ( 1.000000000000000000, 0.0000000000000000000, 0.0000000000000000000 ) ) ;
#97 = CARTESIAN_POINT ( 'NONE',  ( 6.250000000000000000, 7.654042494670957600E-016, -0.5000000000000000000 ) ) ;
#98 = CC_DESIGN_DATE_AND_TIME_ASSIGNMENT ( #58, #87, ( #156 ) ) ;
#99 = APPROVAL_ROLE ( '' ) ;
#100 = APPROVAL_STATUS ( 'not_yet_approved' ) ;
#101 = DIRECTION ( 'NONE',  ( 1.000000000000000000, 0.0000000000000000000, -0.0000000000000000000 ) ) ;
#102 = CARTESIAN_POINT ( 'NONE',  ( 0.0000000000000000000, 0.0000000000000000000, -0.5000000000000000000 ) ) ;
#103 = CARTESIAN_POINT ( 'NONE',  ( -6.250000000000000000, 0.0000000000000000000, -0.5000000000000000000 ) ) ;
#104 = DATE_AND_TIME ( #105, #8 ) ;
#105 = CALENDAR_DATE ( 2017, 20, 7 ) ;
#106 = PERSON_AND_ORGANIZATION_ROLE ( 'design_owner' ) ;
#107 = AXIS2_PLACEMENT_3D ( 'NONE', #9, #139, #101 ) ;
#108 = PERSON_AND_ORGANIZATION ( #26, #85 ) ;
#109 = DIRECTION ( 'NONE',  ( -0.0000000000000000000, -0.0000000000000000000, -1.000000000000000000 ) ) ;
#110 = APPLICATION_CONTEXT ( 'configuration controlled 3d designs of mechanical parts and assemblies' ) ;
#111 = CC_DESIGN_SECURITY_CLASSIFICATION ( #113, ( #7 ) ) ;
#112 = CARTESIAN_POINT ( 'NONE',  ( -6.250000000000000000, 0.0000000000000000000, 0.5000000000000000000 ) ) ;
#113 = SECURITY_CLASSIFICATION ( '', '', #93 ) ;
#114 = SHAPE_DEFINITION_REPRESENTATION ( #33, #75 ) ;
#115 = COORDINATED_UNIVERSAL_TIME_OFFSET ( 5, 0, .BEHIND. ) ;
#116 = ADVANCED_FACE ( 'NONE', ( #71 ), #133, .F. ) ;
#117 = ORIENTED_EDGE ( 'NONE', *, *, #46, .F. ) ;
#118 = DIRECTION ( 'NONE',  ( 0.0000000000000000000, 0.0000000000000000000, 1.000000000000000000 ) ) ;
#119 = CC_DESIGN_PERSON_AND_ORGANIZATION_ASSIGNMENT ( #25, #79, ( #113 ) ) ;
#120 = ORIENTED_EDGE ( 'NONE', *, *, #57, .T. ) ;
#121 = VERTEX_POINT ( 'NONE', #64 ) ;
#122 = CARTESIAN_POINT ( 'NONE',  ( 0.0000000000000000000, 0.0000000000000000000, 0.5000000000000000000 ) ) ;
#123 = VECTOR ( 'NONE', #109, 1000.000000000000000 ) ;
#124 = APPROVAL_STATUS ( 'not_yet_approved' ) ;
#125 = CARTESIAN_POINT ( 'NONE',  ( 0.0000000000000000000, 0.0000000000000000000, 0.5000000000000000000 ) ) ;
#126 = APPROVAL_ROLE ( '' ) ;
#127 = ORIENTED_EDGE ( 'NONE', *, *, #34, .T. ) ;
#128 = EDGE_LOOP ( 'NONE', ( #144, #56, #136, #171 ) ) ;
#129 = CIRCLE ( 'NONE', #21, 6.250000000000000000 ) ;
#130 = CYLINDRICAL_SURFACE ( 'NONE', #174, 6.250000000000000000 ) ;
#131 = CC_DESIGN_PERSON_AND_ORGANIZATION_ASSIGNMENT ( #66, #49, ( #7 ) ) ;
#132 = CARTESIAN_POINT ( 'NONE',  ( 0.0000000000000000000, 0.0000000000000000000, -0.5000000000000000000 ) ) ;
#133 = PLANE ( 'NONE',  #157 ) ;
#134 = LINE ( 'NONE', #86, #137 ) ;
#135 = CARTESIAN_POINT ( 'NONE',  ( 6.250000000000000000, 7.654042494670957600E-016, 0.5000000000000000000 ) ) ;
#136 = ORIENTED_EDGE ( 'NONE', *, *, #46, .T. ) ;
#137 = VECTOR ( 'NONE', #170, 1000.000000000000000 ) ;
#138 = CC_DESIGN_PERSON_AND_ORGANIZATION_ASSIGNMENT ( #62, #143, ( #156 ) ) ;
#139 = DIRECTION ( 'NONE',  ( 0.0000000000000000000, 0.0000000000000000000, 1.000000000000000000 ) ) ;
#140 = LINE ( 'NONE', #135, #123 ) ;
#141 = APPROVAL_ROLE ( '' ) ;
#142 = APPLICATION_CONTEXT ( 'configuration controlled 3d designs of mechanical parts and assemblies' ) ;
#143 = PERSON_AND_ORGANIZATION_ROLE ( 'creator' ) ;
#144 = ORIENTED_EDGE ( 'NONE', *, *, #34, .F. ) ;
#145 = CC_DESIGN_DATE_AND_TIME_ASSIGNMENT ( #104, #166, ( #113 ) ) ;
#146 = DATE_AND_TIME ( #72, #48 ) ;
#147 = APPLICATION_PROTOCOL_DEFINITION ( 'international standard', 'config_control_design', 1994, #110 ) ;
#148 = FACE_OUTER_BOUND ( 'NONE', #162, .T. ) ;
#149 = APPROVAL ( #100, 'UNSPECIFIED' ) ;
#150 = DESIGN_CONTEXT ( 'detailed design', #110, 'design' ) ;
#151 = CIRCLE ( 'NONE', #1, 6.250000000000000000 ) ;
#152 = CARTESIAN_POINT ( 'NONE',  ( 0.0000000000000000000, 0.0000000000000000000, 0.5000000000000000000 ) ) ;
#153 = DIRECTION ( 'NONE',  ( 0.0000000000000000000, 0.0000000000000000000, 1.000000000000000000 ) ) ;
#154 = CIRCLE ( 'NONE', #16, 6.250000000000000000 ) ;
#155 = CC_DESIGN_APPROVAL ( #149, ( #113 ) ) ;
#156 = PRODUCT_DEFINITION ( 'UNKNOWN', '', #7, #150 ) ;
#157 = AXIS2_PLACEMENT_3D ( 'NONE', #132, #118, #92 ) ;
#158 = COORDINATED_UNIVERSAL_TIME_OFFSET ( 5, 0, .BEHIND. ) ;
#159 = CARTESIAN_POINT ( 'NONE',  ( 0.0000000000000000000, 0.0000000000000000000, 0.0000000000000000000 ) ) ;
#160 =( NAMED_UNIT ( * ) PLANE_ANGLE_UNIT ( ) SI_UNIT ( $, .RADIAN. ) );
#161 = APPROVAL_PERSON_ORGANIZATION ( #108, #45, #99 ) ;
#162 = EDGE_LOOP ( 'NONE', ( #41, #13, #6, #5 ) ) ;
#163 = CC_DESIGN_PERSON_AND_ORGANIZATION_ASSIGNMENT ( #37, #27, ( #7 ) ) ;
#164 = ADVANCED_FACE ( 'NONE', ( #81 ), #67, .T. ) ;
#165 = ORIENTED_EDGE ( 'NONE', *, *, #52, .F. ) ;
#166 = DATE_TIME_ROLE ( 'classification_date' ) ;
#167 = DIRECTION ( 'NONE',  ( -1.000000000000000000, 0.0000000000000000000, 0.0000000000000000000 ) ) ;
#168 = APPLICATION_PROTOCOL_DEFINITION ( 'international standard', 'config_control_design', 1994, #142 ) ;
#169 = APPROVAL_DATE_TIME ( #29, #149 ) ;
#170 = DIRECTION ( 'NONE',  ( -0.0000000000000000000, -0.0000000000000000000, -1.000000000000000000 ) ) ;
#171 = ORIENTED_EDGE ( 'NONE', *, *, #42, .F. ) ;
#172 = EDGE_LOOP ( 'NONE', ( #165, #117 ) ) ;
#173 = DIRECTION ( 'NONE',  ( 0.0000000000000000000, 0.0000000000000000000, 1.000000000000000000 ) ) ;
#174 = AXIS2_PLACEMENT_3D ( 'NONE', #122, #80, #167 ) ;
#175 = APPROVAL_STATUS ( 'not_yet_approved' ) ;
ENDSEC;
END-ISO-10303-21;
