ISO-10303-21;
HEADER;
FILE_DESCRIPTION (( 'STEP AP203' ),
    '1' );
FILE_NAME ('Web Model 47021_48394.step',
    '2017-03-01T18:39:30',
    ( '' ),
    ( '' ),
    'SwSTEP 2.0',
    'SolidWorks 2016',
    '' );
FILE_SCHEMA (( 'CONFIG_CONTROL_DESIGN' ));
ENDSEC;

DATA;
#1 = EDGE_CURVE ( 'NONE', #73, #48, #121, .T. ) ;
#2 = CARTESIAN_POINT ( 'NONE',  ( 0.0000000000000000000, 0.0000000000000000000, 0.0000000000000000000 ) ) ;
#3 = PERSON_AND_ORGANIZATION ( #37, #49 ) ;
#4 = ADVANCED_FACE ( 'NONE', ( #67 ), #69, .T. ) ;
#5 = PERSON_AND_ORGANIZATION_ROLE ( 'classification_officer' ) ;
#6 = APPROVAL_ROLE ( '' ) ;
#7 = APPROVAL_PERSON_ORGANIZATION ( #3, #172, #65 ) ;
#8 = APPROVAL ( #101, 'UNSPECIFIED' ) ;
#9 = AXIS2_PLACEMENT_3D ( 'NONE', #134, #74, #107 ) ;
#10 = CARTESIAN_POINT ( 'NONE',  ( 0.0000000000000000000, 0.0000000000000000000, 3.000000000000000000 ) ) ;
#11 = CARTESIAN_POINT ( 'NONE',  ( 0.0000000000000000000, 0.0000000000000000000, 0.0000000000000000000 ) ) ;
#12 = CLOSED_SHELL ( 'NONE', ( #16, #4, #68, #32 ) ) ;
#13 = DIRECTION ( 'NONE',  ( 1.000000000000000000, 0.0000000000000000000, 0.0000000000000000000 ) ) ;
#14 = CC_DESIGN_DATE_AND_TIME_ASSIGNMENT ( #29, #51, ( #129 ) ) ;
#15 = EDGE_CURVE ( 'NONE', #157, #48, #26, .T. ) ;
#16 = ADVANCED_FACE ( 'NONE', ( #20 ), #93, .T. ) ;
#17 = CALENDAR_DATE ( 2017, 1, 3 ) ;
#18 = ORIENTED_EDGE ( 'NONE', *, *, #50, .F. ) ;
#19 = PRODUCT_DEFINITION_FORMATION_WITH_SPECIFIED_SOURCE ( 'ANY', '', #59, .NOT_KNOWN. ) ;
#20 = FACE_OUTER_BOUND ( 'NONE', #144, .T. ) ;
#21 = DESIGN_CONTEXT ( 'detailed design', #99, 'design' ) ;
#22 = COORDINATED_UNIVERSAL_TIME_OFFSET ( 5, 0, .BEHIND. ) ;
#23 = AXIS2_PLACEMENT_3D ( 'NONE', #2, #146, #45 ) ;
#24 = FACE_OUTER_BOUND ( 'NONE', #95, .T. ) ;
#25 = CC_DESIGN_PERSON_AND_ORGANIZATION_ASSIGNMENT ( #125, #38, ( #19 ) ) ;
#26 = LINE ( 'NONE', #54, #39 ) ;
#27 = APPLICATION_PROTOCOL_DEFINITION ( 'international standard', 'config_control_design', 1994, #88 ) ;
#28 = LOCAL_TIME ( 13, 39, 30.00000000000000000, #173 ) ;
#29 = DATE_AND_TIME ( #111, #30 ) ;
#30 = LOCAL_TIME ( 13, 39, 30.00000000000000000, #166 ) ;
#31 = PERSON_AND_ORGANIZATION ( #37, #49 ) ;
#32 = ADVANCED_FACE ( 'NONE', ( #24 ), #128, .F. ) ;
#33 = DIRECTION ( 'NONE',  ( 1.000000000000000000, 0.0000000000000000000, 0.0000000000000000000 ) ) ;
#34 = VERTEX_POINT ( 'NONE', #98 ) ;
#35 = CARTESIAN_POINT ( 'NONE',  ( 0.0000000000000000000, 0.0000000000000000000, 3.000000000000000000 ) ) ;
#36 = EDGE_LOOP ( 'NONE', ( #71, #110, #78, #47 ) ) ;
#37 = PERSON ( 'UNSPECIFIED', 'UNSPECIFIED', 'UNSPECIFIED', ('UNSPECIFIED'), ('UNSPECIFIED'), ('UNSPECIFIED') ) ;
#38 = PERSON_AND_ORGANIZATION_ROLE ( 'design_supplier' ) ;
#39 = VECTOR ( 'NONE', #168, 1000.000000000000000 ) ;
#40 = ORIENTED_EDGE ( 'NONE', *, *, #50, .T. ) ;
#41 = SHAPE_DEFINITION_REPRESENTATION ( #80, #103 ) ;
#42 = DIRECTION ( 'NONE',  ( 0.0000000000000000000, 0.0000000000000000000, 1.000000000000000000 ) ) ;
#43 = PERSON_AND_ORGANIZATION ( #37, #49 ) ;
#44 = CARTESIAN_POINT ( 'NONE',  ( 6.249999999999998200, 7.654042494670955600E-016, 3.000000000000000000 ) ) ;
#45 = DIRECTION ( 'NONE',  ( 1.000000000000000000, 0.0000000000000000000, -0.0000000000000000000 ) ) ;
#46 = EDGE_CURVE ( 'NONE', #48, #73, #152, .T. ) ;
#47 = ORIENTED_EDGE ( 'NONE', *, *, #1, .T. ) ;
#48 = VERTEX_POINT ( 'NONE', #137 ) ;
#49 = ORGANIZATION ( 'UNSPECIFIED', 'UNSPECIFIED', '' ) ;
#50 = EDGE_CURVE ( 'NONE', #157, #34, #104, .T. ) ;
#51 = DATE_TIME_ROLE ( 'creation_date' ) ;
#52 = APPLICATION_PROTOCOL_DEFINITION ( 'international standard', 'config_control_design', 1994, #99 ) ;
#53 = DATE_AND_TIME ( #124, #96 ) ;
#54 = CARTESIAN_POINT ( 'NONE',  ( 6.249999999999998200, 7.654042494670955600E-016, 3.000000000000000000 ) ) ;
#55 = DIRECTION ( 'NONE',  ( 1.000000000000000000, 0.0000000000000000000, 0.0000000000000000000 ) ) ;
#56 = PERSON_AND_ORGANIZATION ( #37, #49 ) ;
#57 = CARTESIAN_POINT ( 'NONE',  ( -6.249999999999998200, 0.0000000000000000000, 0.0000000000000000000 ) ) ;
#58 = CC_DESIGN_PERSON_AND_ORGANIZATION_ASSIGNMENT ( #31, #145, ( #59 ) ) ;
#59 = PRODUCT ( 'Web Model 47021_48394', 'Web Model 47021_48394', '', ( #92 ) ) ;
#60 =( NAMED_UNIT ( * ) SI_UNIT ( $, .STERADIAN. ) SOLID_ANGLE_UNIT ( ) );
#61 = CC_DESIGN_PERSON_AND_ORGANIZATION_ASSIGNMENT ( #56, #114, ( #129 ) ) ;
#62 = PERSON_AND_ORGANIZATION ( #37, #49 ) ;
#63 = PERSON_AND_ORGANIZATION ( #37, #49 ) ;
#64 = DIRECTION ( 'NONE',  ( -0.0000000000000000000, -0.0000000000000000000, -1.000000000000000000 ) ) ;
#65 = APPROVAL_ROLE ( '' ) ;
#66 = CC_DESIGN_APPROVAL ( #143, ( #19 ) ) ;
#67 = FACE_OUTER_BOUND ( 'NONE', #36, .T. ) ;
#68 = ADVANCED_FACE ( 'NONE', ( #141 ), #170, .T. ) ;
#69 = CYLINDRICAL_SURFACE ( 'NONE', #154, 6.249999999999998200 ) ;
#70 = DIRECTION ( 'NONE',  ( 0.0000000000000000000, 0.0000000000000000000, 1.000000000000000000 ) ) ;
#71 = ORIENTED_EDGE ( 'NONE', *, *, #15, .F. ) ;
#72 = CALENDAR_DATE ( 2017, 1, 3 ) ;
#73 = VERTEX_POINT ( 'NONE', #57 ) ;
#74 = DIRECTION ( 'NONE',  ( -0.0000000000000000000, -0.0000000000000000000, -1.000000000000000000 ) ) ;
#75 = DATE_TIME_ROLE ( 'classification_date' ) ;
#76 = LOCAL_TIME ( 13, 39, 30.00000000000000000, #85 ) ;
#77 =( GEOMETRIC_REPRESENTATION_CONTEXT ( 3 ) GLOBAL_UNCERTAINTY_ASSIGNED_CONTEXT ( ( #91 ) ) GLOBAL_UNIT_ASSIGNED_CONTEXT ( ( #132, #161, #60 ) ) REPRESENTATION_CONTEXT ( 'NONE', 'WORKASPACE' ) );
#78 = ORIENTED_EDGE ( 'NONE', *, *, #147, .T. ) ;
#79 = APPROVAL_ROLE ( '' ) ;
#80 = PRODUCT_DEFINITION_SHAPE ( 'NONE', 'NONE',  #129 ) ;
#81 = CC_DESIGN_APPROVAL ( #8, ( #129 ) ) ;
#82 = DIRECTION ( 'NONE',  ( 1.000000000000000000, 0.0000000000000000000, 0.0000000000000000000 ) ) ;
#83 = AXIS2_PLACEMENT_3D ( 'NONE', #123, #118, #116 ) ;
#84 = DIRECTION ( 'NONE',  ( 0.0000000000000000000, 0.0000000000000000000, 1.000000000000000000 ) ) ;
#85 = COORDINATED_UNIVERSAL_TIME_OFFSET ( 5, 0, .BEHIND. ) ;
#86 = DATE_AND_TIME ( #17, #76 ) ;
#87 = DIRECTION ( 'NONE',  ( -1.000000000000000000, 0.0000000000000000000, 0.0000000000000000000 ) ) ;
#88 = APPLICATION_CONTEXT ( 'configuration controlled 3d designs of mechanical parts and assemblies' ) ;
#89 = AXIS2_PLACEMENT_3D ( 'NONE', #159, #70, #97 ) ;
#90 = APPROVAL_STATUS ( 'not_yet_approved' ) ;
#91 = UNCERTAINTY_MEASURE_WITH_UNIT (LENGTH_MEASURE( 1.000000000000000100E-005 ), #132, 'distance_accuracy_value', 'NONE');
#92 = MECHANICAL_CONTEXT ( 'NONE', #88, 'mechanical' ) ;
#93 = CYLINDRICAL_SURFACE ( 'NONE', #9, 6.249999999999998200 ) ;
#94 = CC_DESIGN_PERSON_AND_ORGANIZATION_ASSIGNMENT ( #43, #5, ( #119 ) ) ;
#95 = EDGE_LOOP ( 'NONE', ( #133, #149 ) ) ;
#96 = LOCAL_TIME ( 13, 39, 30.00000000000000000, #22 ) ;
#97 = DIRECTION ( 'NONE',  ( 1.000000000000000000, 0.0000000000000000000, 0.0000000000000000000 ) ) ;
#98 = CARTESIAN_POINT ( 'NONE',  ( -6.249999999999998200, 0.0000000000000000000, 3.000000000000000000 ) ) ;
#99 = APPLICATION_CONTEXT ( 'configuration controlled 3d designs of mechanical parts and assemblies' ) ;
#100 = CC_DESIGN_PERSON_AND_ORGANIZATION_ASSIGNMENT ( #63, #115, ( #19 ) ) ;
#101 = APPROVAL_STATUS ( 'not_yet_approved' ) ;
#102 = COORDINATED_UNIVERSAL_TIME_OFFSET ( 5, 0, .BEHIND. ) ;
#103 = ADVANCED_BREP_SHAPE_REPRESENTATION ( 'Web Model 47021_48394', ( #148, #105 ), #77 ) ;
#104 = CIRCLE ( 'NONE', #89, 6.249999999999998200 ) ;
#105 = AXIS2_PLACEMENT_3D ( 'NONE', #106, #84, #82 ) ;
#106 = CARTESIAN_POINT ( 'NONE',  ( 0.0000000000000000000, 0.0000000000000000000, 0.0000000000000000000 ) ) ;
#107 = DIRECTION ( 'NONE',  ( -1.000000000000000000, 0.0000000000000000000, 0.0000000000000000000 ) ) ;
#108 = AXIS2_PLACEMENT_3D ( 'NONE', #35, #42, #33 ) ;
#109 = APPROVAL_DATE_TIME ( #53, #172 ) ;
#110 = ORIENTED_EDGE ( 'NONE', *, *, #167, .F. ) ;
#111 = CALENDAR_DATE ( 2017, 1, 3 ) ;
#112 = CC_DESIGN_DATE_AND_TIME_ASSIGNMENT ( #164, #75, ( #119 ) ) ;
#113 = APPROVAL_DATE_TIME ( #130, #143 ) ;
#114 = PERSON_AND_ORGANIZATION_ROLE ( 'creator' ) ;
#115 = PERSON_AND_ORGANIZATION_ROLE ( 'creator' ) ;
#116 = DIRECTION ( 'NONE',  ( 1.000000000000000000, 0.0000000000000000000, -0.0000000000000000000 ) ) ;
#117 = CALENDAR_DATE ( 2017, 1, 3 ) ;
#118 = DIRECTION ( 'NONE',  ( 0.0000000000000000000, 0.0000000000000000000, 1.000000000000000000 ) ) ;
#119 = SECURITY_CLASSIFICATION ( '', '', #175 ) ;
#120 = APPROVAL_STATUS ( 'not_yet_approved' ) ;
#121 = CIRCLE ( 'NONE', #169, 6.249999999999998200 ) ;
#122 = ORIENTED_EDGE ( 'NONE', *, *, #167, .T. ) ;
#123 = CARTESIAN_POINT ( 'NONE',  ( 0.0000000000000000000, 0.0000000000000000000, 3.000000000000000000 ) ) ;
#124 = CALENDAR_DATE ( 2017, 1, 3 ) ;
#125 = PERSON_AND_ORGANIZATION ( #37, #49 ) ;
#126 = APPROVAL_PERSON_ORGANIZATION ( #160, #8, #6 ) ;
#127 = PRODUCT_RELATED_PRODUCT_CATEGORY ( 'detail', '', ( #59 ) ) ;
#128 = PLANE ( 'NONE',  #23 ) ;
#129 = PRODUCT_DEFINITION ( 'UNKNOWN', '', #19, #21 ) ;
#130 = DATE_AND_TIME ( #117, #28 ) ;
#131 = VECTOR ( 'NONE', #64, 1000.000000000000000 ) ;
#132 =( LENGTH_UNIT ( ) NAMED_UNIT ( * ) SI_UNIT ( .MILLI., .METRE. ) );
#133 = ORIENTED_EDGE ( 'NONE', *, *, #1, .F. ) ;
#134 = CARTESIAN_POINT ( 'NONE',  ( 0.0000000000000000000, 0.0000000000000000000, 3.000000000000000000 ) ) ;
#135 = CIRCLE ( 'NONE', #108, 6.249999999999998200 ) ;
#136 = LOCAL_TIME ( 13, 39, 30.00000000000000000, #102 ) ;
#137 = CARTESIAN_POINT ( 'NONE',  ( 6.249999999999998200, 7.654042494670955600E-016, 0.0000000000000000000 ) ) ;
#138 = ORIENTED_EDGE ( 'NONE', *, *, #147, .F. ) ;
#139 = ORIENTED_EDGE ( 'NONE', *, *, #46, .T. ) ;
#140 = ORIENTED_EDGE ( 'NONE', *, *, #15, .T. ) ;
#141 = FACE_OUTER_BOUND ( 'NONE', #155, .T. ) ;
#142 = LINE ( 'NONE', #171, #131 ) ;
#143 = APPROVAL ( #90, 'UNSPECIFIED' ) ;
#144 = EDGE_LOOP ( 'NONE', ( #18, #140, #139, #138 ) ) ;
#145 = PERSON_AND_ORGANIZATION_ROLE ( 'design_owner' ) ;
#146 = DIRECTION ( 'NONE',  ( 0.0000000000000000000, 0.0000000000000000000, 1.000000000000000000 ) ) ;
#147 = EDGE_CURVE ( 'NONE', #34, #73, #142, .T. ) ;
#148 = MANIFOLD_SOLID_BREP ( 'Extrude1', #12 ) ;
#149 = ORIENTED_EDGE ( 'NONE', *, *, #46, .F. ) ;
#150 = APPROVAL_DATE_TIME ( #86, #8 ) ;
#151 = DIRECTION ( 'NONE',  ( -0.0000000000000000000, -0.0000000000000000000, -1.000000000000000000 ) ) ;
#152 = CIRCLE ( 'NONE', #158, 6.249999999999998200 ) ;
#153 = CARTESIAN_POINT ( 'NONE',  ( 0.0000000000000000000, 0.0000000000000000000, 0.0000000000000000000 ) ) ;
#154 = AXIS2_PLACEMENT_3D ( 'NONE', #10, #151, #87 ) ;
#155 = EDGE_LOOP ( 'NONE', ( #122, #40 ) ) ;
#156 = CC_DESIGN_SECURITY_CLASSIFICATION ( #119, ( #19 ) ) ;
#157 = VERTEX_POINT ( 'NONE', #44 ) ;
#158 = AXIS2_PLACEMENT_3D ( 'NONE', #11, #174, #13 ) ;
#159 = CARTESIAN_POINT ( 'NONE',  ( 0.0000000000000000000, 0.0000000000000000000, 3.000000000000000000 ) ) ;
#160 = PERSON_AND_ORGANIZATION ( #37, #49 ) ;
#161 =( NAMED_UNIT ( * ) PLANE_ANGLE_UNIT ( ) SI_UNIT ( $, .RADIAN. ) );
#162 = CC_DESIGN_APPROVAL ( #172, ( #119 ) ) ;
#163 = DIRECTION ( 'NONE',  ( 0.0000000000000000000, 0.0000000000000000000, 1.000000000000000000 ) ) ;
#164 = DATE_AND_TIME ( #72, #136 ) ;
#165 = APPROVAL_PERSON_ORGANIZATION ( #62, #143, #79 ) ;
#166 = COORDINATED_UNIVERSAL_TIME_OFFSET ( 5, 0, .BEHIND. ) ;
#167 = EDGE_CURVE ( 'NONE', #34, #157, #135, .T. ) ;
#168 = DIRECTION ( 'NONE',  ( -0.0000000000000000000, -0.0000000000000000000, -1.000000000000000000 ) ) ;
#169 = AXIS2_PLACEMENT_3D ( 'NONE', #153, #163, #55 ) ;
#170 = PLANE ( 'NONE',  #83 ) ;
#171 = CARTESIAN_POINT ( 'NONE',  ( -6.249999999999998200, 0.0000000000000000000, 3.000000000000000000 ) ) ;
#172 = APPROVAL ( #120, 'UNSPECIFIED' ) ;
#173 = COORDINATED_UNIVERSAL_TIME_OFFSET ( 5, 0, .BEHIND. ) ;
#174 = DIRECTION ( 'NONE',  ( 0.0000000000000000000, 0.0000000000000000000, 1.000000000000000000 ) ) ;
#175 = SECURITY_CLASSIFICATION_LEVEL ( 'unclassified' ) ;
ENDSEC;
END-ISO-10303-21;
