ISO-10303-21;
HEADER;
FILE_DESCRIPTION (( 'STEP AP203' ),
    '1' );
FILE_NAME ('Web Model 12454_12460.step',
    '2019-11-01T15:21:33',
    ( '' ),
    ( '' ),
    'SwSTEP 2.0',
    'SolidWorks 2018',
    '' );
FILE_SCHEMA (( 'CONFIG_CONTROL_DESIGN' ));
ENDSEC;

DATA;
#1 = DIRECTION ( 'NONE',  ( 0.0000000000000000000, 0.0000000000000000000, -1.000000000000000000 ) ) ;
#2 = CC_DESIGN_PERSON_AND_ORGANIZATION_ASSIGNMENT ( #66, #92, ( #102 ) ) ;
#3 = DIRECTION ( 'NONE',  ( 1.000000000000000000, 0.0000000000000000000, 0.0000000000000000000 ) ) ;
#4 = ADVANCED_FACE ( 'NONE', ( #118 ), #89, .F. ) ;
#5 = APPROVAL_DATE_TIME ( #12, #51 ) ;
#6 = PLANE ( 'NONE',  #173 ) ;
#7 = EDGE_CURVE ( 'NONE', #44, #119, #84, .T. ) ;
#8 = CARTESIAN_POINT ( 'NONE',  ( 0.8000000000000000444, 1.530808498934191521E-15, -12.50000000000000000 ) ) ;
#9 = AXIS2_PLACEMENT_3D ( 'NONE', #120, #75, #53 ) ;
#10 = EDGE_CURVE ( 'NONE', #127, #39, #142, .T. ) ;
#11 = AXIS2_PLACEMENT_3D ( 'NONE', #171, #55, #68 ) ;
#12 = DATE_AND_TIME ( #107, #154 ) ;
#13 = ORIENTED_EDGE ( 'NONE', *, *, #121, .F. ) ;
#14 = AXIS2_PLACEMENT_3D ( 'NONE', #90, #63, #1 ) ;
#15 = ORIENTED_EDGE ( 'NONE', *, *, #7, .T. ) ;
#16 = DIRECTION ( 'NONE',  ( -1.000000000000000000, -0.0000000000000000000, -0.0000000000000000000 ) ) ;
#17 = PRODUCT ( 'Web Model 12454_12460', 'Web Model 12454_12460', '', ( #98 ) ) ;
#18 = CARTESIAN_POINT ( 'NONE',  ( -0.8000000000000000444, 0.0000000000000000000, 12.50000000000000000 ) ) ;
#19 = EDGE_LOOP ( 'NONE', ( #77, #82, #62, #169 ) ) ;
#20 = DATE_TIME_ROLE ( 'creation_date' ) ;
#21 = ADVANCED_FACE ( 'NONE', ( #74 ), #29, .T. ) ;
#22 = PERSON_AND_ORGANIZATION ( #150, #72 ) ;
#23 = AXIS2_PLACEMENT_3D ( 'NONE', #91, #104, #160 ) ;
#24 = CC_DESIGN_APPROVAL ( #51, ( #102 ) ) ;
#25 = LOCAL_TIME ( 11, 21, 33.00000000000000000, #168 ) ;
#26 = CIRCLE ( 'NONE', #11, 12.50000000000000000 ) ;
#27 = PERSON_AND_ORGANIZATION ( #150, #72 ) ;
#28 = CALENDAR_DATE ( 2019, 1, 11 ) ;
#29 = CYLINDRICAL_SURFACE ( 'NONE', #134, 12.50000000000000000 ) ;
#30 = CARTESIAN_POINT ( 'NONE',  ( 0.8000000000000000444, 0.0000000000000000000, 12.50000000000000000 ) ) ;
#31 = CC_DESIGN_PERSON_AND_ORGANIZATION_ASSIGNMENT ( #136, #135, ( #170 ) ) ;
#32 = DIRECTION ( 'NONE',  ( 0.0000000000000000000, 0.0000000000000000000, 1.000000000000000000 ) ) ;
#33 = APPLICATION_PROTOCOL_DEFINITION ( 'international standard', 'config_control_design', 1994, #45 ) ;
#34 = APPLICATION_CONTEXT ( 'configuration controlled 3d designs of mechanical parts and assemblies' ) ;
#35 = PERSON_AND_ORGANIZATION_ROLE ( 'design_supplier' ) ;
#36 = PERSON_AND_ORGANIZATION ( #150, #72 ) ;
#37 = LOCAL_TIME ( 11, 21, 33.00000000000000000, #163 ) ;
#38 = LOCAL_TIME ( 11, 21, 33.00000000000000000, #48 ) ;
#39 = VERTEX_POINT ( 'NONE', #105 ) ;
#40 = DIRECTION ( 'NONE',  ( 0.0000000000000000000, 0.0000000000000000000, 1.000000000000000000 ) ) ;
#41 = CIRCLE ( 'NONE', #117, 12.50000000000000000 ) ;
#42 = APPROVAL_ROLE ( '' ) ;
#43 = DIRECTION ( 'NONE',  ( -1.000000000000000000, -0.0000000000000000000, -0.0000000000000000000 ) ) ;
#44 = VERTEX_POINT ( 'NONE', #30 ) ;
#45 = APPLICATION_CONTEXT ( 'configuration controlled 3d designs of mechanical parts and assemblies' ) ;
#46 = VECTOR ( 'NONE', #93, 1000.000000000000000 ) ;
#47 = ORIENTED_EDGE ( 'NONE', *, *, #161, .T. ) ;
#48 = COORDINATED_UNIVERSAL_TIME_OFFSET ( 5, 0, .BEHIND. ) ;
#49 = APPROVAL_PERSON_ORGANIZATION ( #95, #123, #42 ) ;
#50 = ORIENTED_EDGE ( 'NONE', *, *, #7, .F. ) ;
#51 = APPROVAL ( #56, 'UNSPECIFIED' ) ;
#52 = LINE ( 'NONE', #8, #83 ) ;
#53 = DIRECTION ( 'NONE',  ( 0.0000000000000000000, 0.0000000000000000000, -1.000000000000000000 ) ) ;
#54 = DATE_TIME_ROLE ( 'classification_date' ) ;
#55 = DIRECTION ( 'NONE',  ( 1.000000000000000000, 0.0000000000000000000, 0.0000000000000000000 ) ) ;
#56 = APPROVAL_STATUS ( 'not_yet_approved' ) ;
#57 = DIRECTION ( 'NONE',  ( 1.000000000000000000, 0.0000000000000000000, 0.0000000000000000000 ) ) ;
#58 = APPROVAL_DATE_TIME ( #65, #99 ) ;
#59 = EDGE_LOOP ( 'NONE', ( #15, #47 ) ) ;
#60 = PRODUCT_RELATED_PRODUCT_CATEGORY ( 'detail', '', ( #17 ) ) ;
#61 = CC_DESIGN_APPROVAL ( #123, ( #131 ) ) ;
#62 = ORIENTED_EDGE ( 'NONE', *, *, #121, .T. ) ;
#63 = DIRECTION ( 'NONE',  ( 1.000000000000000000, 0.0000000000000000000, 0.0000000000000000000 ) ) ;
#64 = ORIENTED_EDGE ( 'NONE', *, *, #10, .T. ) ;
#65 = DATE_AND_TIME ( #122, #37 ) ;
#66 = PERSON_AND_ORGANIZATION ( #150, #72 ) ;
#67 = APPROVAL_ROLE ( '' ) ;
#68 = DIRECTION ( 'NONE',  ( 0.0000000000000000000, 0.0000000000000000000, -1.000000000000000000 ) ) ;
#69 =( LENGTH_UNIT ( ) NAMED_UNIT ( * ) SI_UNIT ( .MILLI., .METRE. ) );
#70 = ADVANCED_FACE ( 'NONE', ( #130 ), #6, .T. ) ;
#71 = CC_DESIGN_PERSON_AND_ORGANIZATION_ASSIGNMENT ( #86, #141, ( #131 ) ) ;
#72 = ORGANIZATION ( 'UNSPECIFIED', 'UNSPECIFIED', '' ) ;
#73 = PERSON_AND_ORGANIZATION ( #150, #72 ) ;
#74 = FACE_OUTER_BOUND ( 'NONE', #88, .T. ) ;
#75 = DIRECTION ( 'NONE',  ( 1.000000000000000000, 0.0000000000000000000, 0.0000000000000000000 ) ) ;
#76 = CARTESIAN_POINT ( 'NONE',  ( 0.8000000000000000444, 0.0000000000000000000, 0.0000000000000000000 ) ) ;
#77 = ORIENTED_EDGE ( 'NONE', *, *, #161, .F. ) ;
#78 = ORIENTED_EDGE ( 'NONE', *, *, #10, .F. ) ;
#79 = CC_DESIGN_APPROVAL ( #99, ( #170 ) ) ;
#80 = APPROVAL_STATUS ( 'not_yet_approved' ) ;
#81 =( NAMED_UNIT ( * ) SI_UNIT ( $, .STERADIAN. ) SOLID_ANGLE_UNIT ( ) );
#82 = ORIENTED_EDGE ( 'NONE', *, *, #146, .T. ) ;
#83 = VECTOR ( 'NONE', #43, 1000.000000000000000 ) ;
#84 = CIRCLE ( 'NONE', #14, 12.50000000000000000 ) ;
#85 = ORIENTED_EDGE ( 'NONE', *, *, #101, .T. ) ;
#86 = PERSON_AND_ORGANIZATION ( #150, #72 ) ;
#87 =( GEOMETRIC_REPRESENTATION_CONTEXT ( 3 ) GLOBAL_UNCERTAINTY_ASSIGNED_CONTEXT ( ( #96 ) ) GLOBAL_UNIT_ASSIGNED_CONTEXT ( ( #69, #94, #81 ) ) REPRESENTATION_CONTEXT ( 'NONE', 'WORKASPACE' ) );
#88 = EDGE_LOOP ( 'NONE', ( #112, #50, #85, #64 ) ) ;
#89 = PLANE ( 'NONE',  #9 ) ;
#90 = CARTESIAN_POINT ( 'NONE',  ( 0.8000000000000000444, 0.0000000000000000000, 0.0000000000000000000 ) ) ;
#91 = CARTESIAN_POINT ( 'NONE',  ( -0.8000000000000000444, 0.0000000000000000000, 0.0000000000000000000 ) ) ;
#92 = PERSON_AND_ORGANIZATION_ROLE ( 'creator' ) ;
#93 = DIRECTION ( 'NONE',  ( -1.000000000000000000, -0.0000000000000000000, -0.0000000000000000000 ) ) ;
#94 =( NAMED_UNIT ( * ) PLANE_ANGLE_UNIT ( ) SI_UNIT ( $, .RADIAN. ) );
#95 = PERSON_AND_ORGANIZATION ( #150, #72 ) ;
#96 = UNCERTAINTY_MEASURE_WITH_UNIT (LENGTH_MEASURE( 1.000000000000000082E-05 ), #69, 'distance_accuracy_value', 'NONE');
#97 = CARTESIAN_POINT ( 'NONE',  ( 0.8000000000000000444, 0.0000000000000000000, 12.50000000000000000 ) ) ;
#98 = MECHANICAL_CONTEXT ( 'NONE', #34, 'mechanical' ) ;
#99 = APPROVAL ( #149, 'UNSPECIFIED' ) ;
#100 = LINE ( 'NONE', #97, #46 ) ;
#101 = EDGE_CURVE ( 'NONE', #44, #127, #100, .T. ) ;
#102 = PRODUCT_DEFINITION_FORMATION_WITH_SPECIFIED_SOURCE ( 'ANY', '', #17, .NOT_KNOWN. ) ;
#103 = CC_DESIGN_DATE_AND_TIME_ASSIGNMENT ( #172, #54, ( #170 ) ) ;
#104 = DIRECTION ( 'NONE',  ( 1.000000000000000000, 0.0000000000000000000, 0.0000000000000000000 ) ) ;
#105 = CARTESIAN_POINT ( 'NONE',  ( -0.8000000000000000444, 1.530808498934191521E-15, -12.50000000000000000 ) ) ;
#106 = CARTESIAN_POINT ( 'NONE',  ( 0.8000000000000000444, 1.530808498934191521E-15, -12.50000000000000000 ) ) ;
#107 = CALENDAR_DATE ( 2019, 1, 11 ) ;
#108 = CARTESIAN_POINT ( 'NONE',  ( 0.0000000000000000000, 0.0000000000000000000, 0.0000000000000000000 ) ) ;
#109 = DIRECTION ( 'NONE',  ( 0.0000000000000000000, 0.0000000000000000000, 1.000000000000000000 ) ) ;
#110 = APPROVAL_ROLE ( '' ) ;
#111 = AXIS2_PLACEMENT_3D ( 'NONE', #108, #32, #3 ) ;
#112 = ORIENTED_EDGE ( 'NONE', *, *, #146, .F. ) ;
#113 = ADVANCED_BREP_SHAPE_REPRESENTATION ( 'Web Model 12454_12460', ( #115, #111 ), #87 ) ;
#114 = CC_DESIGN_DATE_AND_TIME_ASSIGNMENT ( #132, #20, ( #131 ) ) ;
#115 = MANIFOLD_SOLID_BREP ( 'Boss-Extrude1', #145 ) ;
#116 = CALENDAR_DATE ( 2019, 1, 11 ) ;
#117 = AXIS2_PLACEMENT_3D ( 'NONE', #126, #137, #165 ) ;
#118 = FACE_OUTER_BOUND ( 'NONE', #153, .T. ) ;
#119 = VERTEX_POINT ( 'NONE', #106 ) ;
#120 = CARTESIAN_POINT ( 'NONE',  ( -0.8000000000000000444, 0.0000000000000000000, 0.0000000000000000000 ) ) ;
#121 = EDGE_CURVE ( 'NONE', #39, #127, #41, .T. ) ;
#122 = CALENDAR_DATE ( 2019, 1, 11 ) ;
#123 = APPROVAL ( #80, 'UNSPECIFIED' ) ;
#124 = COORDINATED_UNIVERSAL_TIME_OFFSET ( 5, 0, .BEHIND. ) ;
#125 = SECURITY_CLASSIFICATION_LEVEL ( 'unclassified' ) ;
#126 = CARTESIAN_POINT ( 'NONE',  ( -0.8000000000000000444, 0.0000000000000000000, 0.0000000000000000000 ) ) ;
#127 = VERTEX_POINT ( 'NONE', #18 ) ;
#128 = DIRECTION ( 'NONE',  ( -1.000000000000000000, -0.0000000000000000000, -0.0000000000000000000 ) ) ;
#129 = DATE_AND_TIME ( #152, #155 ) ;
#130 = FACE_OUTER_BOUND ( 'NONE', #59, .T. ) ;
#131 = PRODUCT_DEFINITION ( 'UNKNOWN', '', #102, #166 ) ;
#132 = DATE_AND_TIME ( #116, #38 ) ;
#133 = DIRECTION ( 'NONE',  ( 0.0000000000000000000, 0.0000000000000000000, -1.000000000000000000 ) ) ;
#134 = AXIS2_PLACEMENT_3D ( 'NONE', #76, #16, #40 ) ;
#135 = PERSON_AND_ORGANIZATION_ROLE ( 'classification_officer' ) ;
#136 = PERSON_AND_ORGANIZATION ( #150, #72 ) ;
#137 = DIRECTION ( 'NONE',  ( 1.000000000000000000, 0.0000000000000000000, 0.0000000000000000000 ) ) ;
#138 = AXIS2_PLACEMENT_3D ( 'NONE', #151, #128, #109 ) ;
#139 = APPLICATION_PROTOCOL_DEFINITION ( 'international standard', 'config_control_design', 1994, #34 ) ;
#140 = ADVANCED_FACE ( 'NONE', ( #159 ), #147, .T. ) ;
#141 = PERSON_AND_ORGANIZATION_ROLE ( 'creator' ) ;
#142 = CIRCLE ( 'NONE', #23, 12.50000000000000000 ) ;
#143 = SHAPE_DEFINITION_REPRESENTATION ( #158, #113 ) ;
#144 = APPROVAL_PERSON_ORGANIZATION ( #73, #99, #67 ) ;
#145 = CLOSED_SHELL ( 'NONE', ( #140, #21, #70, #4 ) ) ;
#146 = EDGE_CURVE ( 'NONE', #119, #39, #52, .T. ) ;
#147 = CYLINDRICAL_SURFACE ( 'NONE', #138, 12.50000000000000000 ) ;
#148 = PERSON_AND_ORGANIZATION_ROLE ( 'design_owner' ) ;
#149 = APPROVAL_STATUS ( 'not_yet_approved' ) ;
#150 = PERSON ( 'UNSPECIFIED', 'UNSPECIFIED', 'UNSPECIFIED', ('UNSPECIFIED'), ('UNSPECIFIED'), ('UNSPECIFIED') ) ;
#151 = CARTESIAN_POINT ( 'NONE',  ( 0.8000000000000000444, 0.0000000000000000000, 0.0000000000000000000 ) ) ;
#152 = CALENDAR_DATE ( 2019, 1, 11 ) ;
#153 = EDGE_LOOP ( 'NONE', ( #78, #13 ) ) ;
#154 = LOCAL_TIME ( 11, 21, 33.00000000000000000, #124 ) ;
#155 = LOCAL_TIME ( 11, 21, 33.00000000000000000, #174 ) ;
#156 = CC_DESIGN_PERSON_AND_ORGANIZATION_ASSIGNMENT ( #36, #35, ( #102 ) ) ;
#157 = APPROVAL_PERSON_ORGANIZATION ( #22, #51, #110 ) ;
#158 = PRODUCT_DEFINITION_SHAPE ( 'NONE', 'NONE',  #131 ) ;
#159 = FACE_OUTER_BOUND ( 'NONE', #19, .T. ) ;
#160 = DIRECTION ( 'NONE',  ( 0.0000000000000000000, 0.0000000000000000000, -1.000000000000000000 ) ) ;
#161 = EDGE_CURVE ( 'NONE', #119, #44, #26, .T. ) ;
#162 = CC_DESIGN_SECURITY_CLASSIFICATION ( #170, ( #102 ) ) ;
#163 = COORDINATED_UNIVERSAL_TIME_OFFSET ( 5, 0, .BEHIND. ) ;
#164 = APPROVAL_DATE_TIME ( #129, #123 ) ;
#165 = DIRECTION ( 'NONE',  ( 0.0000000000000000000, 0.0000000000000000000, -1.000000000000000000 ) ) ;
#166 = DESIGN_CONTEXT ( 'detailed design', #45, 'design' ) ;
#167 = CARTESIAN_POINT ( 'NONE',  ( 0.8000000000000000444, 0.0000000000000000000, 0.0000000000000000000 ) ) ;
#168 = COORDINATED_UNIVERSAL_TIME_OFFSET ( 5, 0, .BEHIND. ) ;
#169 = ORIENTED_EDGE ( 'NONE', *, *, #101, .F. ) ;
#170 = SECURITY_CLASSIFICATION ( '', '', #125 ) ;
#171 = CARTESIAN_POINT ( 'NONE',  ( 0.8000000000000000444, 0.0000000000000000000, 0.0000000000000000000 ) ) ;
#172 = DATE_AND_TIME ( #28, #25 ) ;
#173 = AXIS2_PLACEMENT_3D ( 'NONE', #167, #57, #133 ) ;
#174 = COORDINATED_UNIVERSAL_TIME_OFFSET ( 5, 0, .BEHIND. ) ;
#175 = CC_DESIGN_PERSON_AND_ORGANIZATION_ASSIGNMENT ( #27, #148, ( #17 ) ) ;
ENDSEC;
END-ISO-10303-21;
