ISO-10303-21;
HEADER;
FILE_DESCRIPTION (( 'STEP AP203' ),
    '1' );
FILE_NAME ('Web Model 11174_11174.step',
    '2018-12-26T18:01:25',
    ( '' ),
    ( '' ),
    'SwSTEP 2.0',
    'SolidWorks 2016',
    '' );
FILE_SCHEMA (( 'CONFIG_CONTROL_DESIGN' ));
ENDSEC;

DATA;
#1 = CARTESIAN_POINT ( 'NONE',  ( 5.000000000000000000, -1.500000000000000000, -1.500000000000000000 ) ) ;
#2 = APPROVAL_ROLE ( '' ) ;
#3 = DATE_TIME_ROLE ( 'creation_date' ) ;
#4 = LOCAL_TIME ( 13, 1, 25.00000000000000000, #64 ) ;
#5 = EDGE_LOOP ( 'NONE', ( #99, #218, #230, #223 ) ) ;
#6 =( NAMED_UNIT ( * ) PLANE_ANGLE_UNIT ( ) SI_UNIT ( $, .RADIAN. ) );
#7 = APPROVAL_ROLE ( '' ) ;
#8 = FACE_OUTER_BOUND ( 'NONE', #124, .T. ) ;
#9 = COORDINATED_UNIVERSAL_TIME_OFFSET ( 5, 0, .BEHIND. ) ;
#10 = EDGE_CURVE ( 'NONE', #41, #82, #227, .T. ) ;
#11 = EDGE_LOOP ( 'NONE', ( #172, #233, #95, #181 ) ) ;
#12 = CARTESIAN_POINT ( 'NONE',  ( -5.000000000000000000, -1.500000000000000000, -1.500000000000000000 ) ) ;
#13 = CARTESIAN_POINT ( 'NONE',  ( -5.000000000000000000, -1.500000000000000400, 1.500000000000000000 ) ) ;
#14 = APPROVAL_PERSON_ORGANIZATION ( #173, #69, #179 ) ;
#15 = CC_DESIGN_PERSON_AND_ORGANIZATION_ASSIGNMENT ( #18, #90, ( #182 ) ) ;
#16 = CARTESIAN_POINT ( 'NONE',  ( 5.000000000000000000, -1.500000000000000400, 1.500000000000000000 ) ) ;
#17 = DIRECTION ( 'NONE',  ( 0.0000000000000000000, 1.445602896647339200E-016, -1.000000000000000000 ) ) ;
#18 = PERSON_AND_ORGANIZATION ( #123, #183 ) ;
#19 = AXIS2_PLACEMENT_3D ( 'NONE', #215, #174, #17 ) ;
#20 = EDGE_LOOP ( 'NONE', ( #171, #96, #32, #142 ) ) ;
#21 = DIRECTION ( 'NONE',  ( 1.000000000000000000, 0.0000000000000000000, -0.0000000000000000000 ) ) ;
#22 = PLANE ( 'NONE',  #19 ) ;
#23 = CARTESIAN_POINT ( 'NONE',  ( -5.000000000000000000, -1.500000000000000400, 1.500000000000000000 ) ) ;
#24 = FACE_OUTER_BOUND ( 'NONE', #61, .T. ) ;
#25 = PERSON_AND_ORGANIZATION_ROLE ( 'creator' ) ;
#26 = AXIS2_PLACEMENT_3D ( 'NONE', #116, #44, #203 ) ;
#27 = LINE ( 'NONE', #178, #165 ) ;
#28 = COORDINATED_UNIVERSAL_TIME_OFFSET ( 5, 0, .BEHIND. ) ;
#29 = AXIS2_PLACEMENT_3D ( 'NONE', #1, #120, #125 ) ;
#30 = PRODUCT_RELATED_PRODUCT_CATEGORY ( 'detail', '', ( #89 ) ) ;
#31 = PRODUCT_DEFINITION_FORMATION_WITH_SPECIFIED_SOURCE ( 'ANY', '', #89, .NOT_KNOWN. ) ;
#32 = ORIENTED_EDGE ( 'NONE', *, *, #86, .F. ) ;
#33 = COORDINATED_UNIVERSAL_TIME_OFFSET ( 5, 0, .BEHIND. ) ;
#34 = ORIENTED_EDGE ( 'NONE', *, *, #151, .F. ) ;
#35 = DIRECTION ( 'NONE',  ( -0.0000000000000000000, -1.000000000000000000, -0.0000000000000000000 ) ) ;
#36 = LOCAL_TIME ( 13, 1, 25.00000000000000000, #9 ) ;
#37 = VECTOR ( 'NONE', #189, 1000.000000000000000 ) ;
#38 = ADVANCED_FACE ( 'NONE', ( #8 ), #207, .F. ) ;
#39 = VERTEX_POINT ( 'NONE', #12 ) ;
#40 = PERSON_AND_ORGANIZATION ( #123, #183 ) ;
#41 = VERTEX_POINT ( 'NONE', #153 ) ;
#42 = VECTOR ( 'NONE', #110, 1000.000000000000000 ) ;
#43 = VERTEX_POINT ( 'NONE', #100 ) ;
#44 = DIRECTION ( 'NONE',  ( 0.0000000000000000000, 0.0000000000000000000, 1.000000000000000000 ) ) ;
#45 = CALENDAR_DATE ( 2018, 26, 12 ) ;
#46 = ORIENTED_EDGE ( 'NONE', *, *, #221, .F. ) ;
#47 = COORDINATED_UNIVERSAL_TIME_OFFSET ( 5, 0, .BEHIND. ) ;
#48 = VERTEX_POINT ( 'NONE', #13 ) ;
#49 = DIRECTION ( 'NONE',  ( -0.0000000000000000000, 1.445602896647339200E-016, -1.000000000000000000 ) ) ;
#50 = PLANE ( 'NONE',  #161 ) ;
#51 = EDGE_CURVE ( 'NONE', #82, #48, #114, .T. ) ;
#52 = CARTESIAN_POINT ( 'NONE',  ( 5.000000000000000000, 1.500000000000000000, -1.500000000000000000 ) ) ;
#53 = ADVANCED_FACE ( 'NONE', ( #187 ), #191, .F. ) ;
#54 = CC_DESIGN_APPROVAL ( #132, ( #92 ) ) ;
#55 = FACE_OUTER_BOUND ( 'NONE', #5, .T. ) ;
#56 = DATE_TIME_ROLE ( 'classification_date' ) ;
#57 = CARTESIAN_POINT ( 'NONE',  ( 0.0000000000000000000, 0.0000000000000000000, 0.0000000000000000000 ) ) ;
#58 = ADVANCED_BREP_SHAPE_REPRESENTATION ( 'Web Model 11174_11174', ( #119, #185 ), #205 ) ;
#59 = PERSON_AND_ORGANIZATION_ROLE ( 'design_owner' ) ;
#60 = VECTOR ( 'NONE', #158, 1000.000000000000000 ) ;
#61 = EDGE_LOOP ( 'NONE', ( #156, #184, #79, #236 ) ) ;
#62 = CC_DESIGN_DATE_AND_TIME_ASSIGNMENT ( #204, #3, ( #182 ) ) ;
#63 = LINE ( 'NONE', #52, #192 ) ;
#64 = COORDINATED_UNIVERSAL_TIME_OFFSET ( 5, 0, .BEHIND. ) ;
#65 = CLOSED_SHELL ( 'NONE', ( #91, #190, #38, #146, #88, #53 ) ) ;
#66 = CARTESIAN_POINT ( 'NONE',  ( 5.000000000000000000, 0.0000000000000000000, 0.0000000000000000000 ) ) ;
#67 = CARTESIAN_POINT ( 'NONE',  ( -5.000000000000000000, 0.0000000000000000000, 0.0000000000000000000 ) ) ;
#68 = PERSON_AND_ORGANIZATION ( #123, #183 ) ;
#69 = APPROVAL ( #200, 'UNSPECIFIED' ) ;
#70 = VECTOR ( 'NONE', #35, 1000.000000000000000 ) ;
#71 = APPROVAL_STATUS ( 'not_yet_approved' ) ;
#72 = APPROVAL_PERSON_ORGANIZATION ( #232, #132, #7 ) ;
#73 = LINE ( 'NONE', #159, #60 ) ;
#74 = ORIENTED_EDGE ( 'NONE', *, *, #86, .T. ) ;
#75 = CC_DESIGN_SECURITY_CLASSIFICATION ( #92, ( #31 ) ) ;
#76 = DESIGN_CONTEXT ( 'detailed design', #109, 'design' ) ;
#77 = LINE ( 'NONE', #216, #202 ) ;
#78 = DATE_AND_TIME ( #97, #36 ) ;
#79 = ORIENTED_EDGE ( 'NONE', *, *, #166, .F. ) ;
#80 = AXIS2_PLACEMENT_3D ( 'NONE', #67, #21, #209 ) ;
#81 = VECTOR ( 'NONE', #139, 1000.000000000000000 ) ;
#82 = VERTEX_POINT ( 'NONE', #83 ) ;
#83 = CARTESIAN_POINT ( 'NONE',  ( -5.000000000000000000, 1.499999999999999600, 1.500000000000000000 ) ) ;
#84 = DIRECTION ( 'NONE',  ( -0.0000000000000000000, 0.0000000000000000000, -1.000000000000000000 ) ) ;
#85 = PLANE ( 'NONE',  #228 ) ;
#86 = EDGE_CURVE ( 'NONE', #39, #41, #170, .T. ) ;
#87 = DIRECTION ( 'NONE',  ( -1.000000000000000000, -0.0000000000000000000, -0.0000000000000000000 ) ) ;
#88 = ADVANCED_FACE ( 'NONE', ( #55 ), #85, .T. ) ;
#89 = PRODUCT ( 'Web Model 11174_11174', 'Web Model 11174_11174', '', ( #160 ) ) ;
#90 = PERSON_AND_ORGANIZATION_ROLE ( 'creator' ) ;
#91 = ADVANCED_FACE ( 'NONE', ( #201 ), #50, .F. ) ;
#92 = SECURITY_CLASSIFICATION ( '', '', #94 ) ;
#93 = PERSON_AND_ORGANIZATION ( #123, #183 ) ;
#94 = SECURITY_CLASSIFICATION_LEVEL ( 'unclassified' ) ;
#95 = ORIENTED_EDGE ( 'NONE', *, *, #115, .F. ) ;
#96 = ORIENTED_EDGE ( 'NONE', *, *, #10, .F. ) ;
#97 = CALENDAR_DATE ( 2018, 26, 12 ) ;
#98 = CALENDAR_DATE ( 2018, 26, 12 ) ;
#99 = ORIENTED_EDGE ( 'NONE', *, *, #115, .T. ) ;
#100 = CARTESIAN_POINT ( 'NONE',  ( 5.000000000000000000, 1.499999999999999600, 1.500000000000000000 ) ) ;
#101 = FACE_OUTER_BOUND ( 'NONE', #224, .T. ) ;
#102 = DIRECTION ( 'NONE',  ( 0.0000000000000000000, -1.445602896647339200E-016, 1.000000000000000000 ) ) ;
#103 = VECTOR ( 'NONE', #141, 1000.000000000000000 ) ;
#104 = ORIENTED_EDGE ( 'NONE', *, *, #130, .F. ) ;
#105 = CARTESIAN_POINT ( 'NONE',  ( -5.000000000000000000, -1.500000000000000000, -1.500000000000000000 ) ) ;
#106 = CARTESIAN_POINT ( 'NONE',  ( 5.000000000000000000, -1.500000000000000000, -1.500000000000000000 ) ) ;
#107 = DIRECTION ( 'NONE',  ( 0.0000000000000000000, 0.0000000000000000000, 1.000000000000000000 ) ) ;
#108 = APPROVAL_DATE_TIME ( #197, #69 ) ;
#109 = APPLICATION_CONTEXT ( 'configuration controlled 3d designs of mechanical parts and assemblies' ) ;
#110 = DIRECTION ( 'NONE',  ( -1.000000000000000000, -0.0000000000000000000, -0.0000000000000000000 ) ) ;
#111 = EDGE_CURVE ( 'NONE', #131, #48, #133, .T. ) ;
#112 = APPROVAL_PERSON_ORGANIZATION ( #145, #126, #2 ) ;
#113 = ORIENTED_EDGE ( 'NONE', *, *, #111, .T. ) ;
#114 = LINE ( 'NONE', #23, #103 ) ;
#115 = EDGE_CURVE ( 'NONE', #43, #131, #150, .T. ) ;
#116 = CARTESIAN_POINT ( 'NONE',  ( 5.000000000000000000, -1.500000000000000000, -1.500000000000000000 ) ) ;
#117 =( LENGTH_UNIT ( ) NAMED_UNIT ( * ) SI_UNIT ( .MILLI., .METRE. ) );
#118 = LINE ( 'NONE', #121, #222 ) ;
#119 = MANIFOLD_SOLID_BREP ( 'Boss-Extrude1', #65 ) ;
#120 = DIRECTION ( 'NONE',  ( -0.0000000000000000000, 1.000000000000000000, 1.445602896647339200E-016 ) ) ;
#121 = CARTESIAN_POINT ( 'NONE',  ( 5.000000000000000000, -1.500000000000000000, -1.500000000000000000 ) ) ;
#122 = CARTESIAN_POINT ( 'NONE',  ( 5.000000000000000000, -1.500000000000000400, 1.500000000000000000 ) ) ;
#123 = PERSON ( 'UNSPECIFIED', 'UNSPECIFIED', 'UNSPECIFIED', ('UNSPECIFIED'), ('UNSPECIFIED'), ('UNSPECIFIED') ) ;
#124 = EDGE_LOOP ( 'NONE', ( #74, #34, #104, #176 ) ) ;
#125 = DIRECTION ( 'NONE',  ( 0.0000000000000000000, -1.445602896647339200E-016, 1.000000000000000000 ) ) ;
#126 = APPROVAL ( #71, 'UNSPECIFIED' ) ;
#127 = LOCAL_TIME ( 13, 1, 25.00000000000000000, #47 ) ;
#128 = UNCERTAINTY_MEASURE_WITH_UNIT (LENGTH_MEASURE( 1.000000000000000100E-005 ), #117, 'distance_accuracy_value', 'NONE');
#129 = DIRECTION ( 'NONE',  ( 1.000000000000000000, 0.0000000000000000000, 0.0000000000000000000 ) ) ;
#130 = EDGE_CURVE ( 'NONE', #135, #212, #226, .T. ) ;
#131 = VERTEX_POINT ( 'NONE', #16 ) ;
#132 = APPROVAL ( #196, 'UNSPECIFIED' ) ;
#133 = LINE ( 'NONE', #175, #211 ) ;
#134 = EDGE_CURVE ( 'NONE', #135, #39, #118, .T. ) ;
#135 = VERTEX_POINT ( 'NONE', #106 ) ;
#136 = CC_DESIGN_PERSON_AND_ORGANIZATION_ASSIGNMENT ( #40, #163, ( #31 ) ) ;
#137 = CC_DESIGN_DATE_AND_TIME_ASSIGNMENT ( #78, #56, ( #92 ) ) ;
#138 = APPROVAL_DATE_TIME ( #154, #126 ) ;
#139 = DIRECTION ( 'NONE',  ( 0.0000000000000000000, 1.000000000000000000, 0.0000000000000000000 ) ) ;
#140 = PLANE ( 'NONE',  #29 ) ;
#141 = DIRECTION ( 'NONE',  ( -0.0000000000000000000, -1.000000000000000000, -0.0000000000000000000 ) ) ;
#142 = ORIENTED_EDGE ( 'NONE', *, *, #195, .F. ) ;
#143 = APPLICATION_PROTOCOL_DEFINITION ( 'international standard', 'config_control_design', 1994, #177 ) ;
#144 = CC_DESIGN_PERSON_AND_ORGANIZATION_ASSIGNMENT ( #229, #148, ( #92 ) ) ;
#145 = PERSON_AND_ORGANIZATION ( #123, #183 ) ;
#146 = ADVANCED_FACE ( 'NONE', ( #24 ), #22, .F. ) ;
#147 = VECTOR ( 'NONE', #155, 1000.000000000000000 ) ;
#148 = PERSON_AND_ORGANIZATION_ROLE ( 'classification_officer' ) ;
#149 = LINE ( 'NONE', #188, #42 ) ;
#150 = LINE ( 'NONE', #237, #70 ) ;
#151 = EDGE_CURVE ( 'NONE', #212, #41, #73, .T. ) ;
#152 = APPROVAL_DATE_TIME ( #168, #132 ) ;
#153 = CARTESIAN_POINT ( 'NONE',  ( -5.000000000000000000, 1.500000000000000000, -1.500000000000000000 ) ) ;
#154 = DATE_AND_TIME ( #169, #4 ) ;
#155 = DIRECTION ( 'NONE',  ( 0.0000000000000000000, -1.445602896647339200E-016, 1.000000000000000000 ) ) ;
#156 = ORIENTED_EDGE ( 'NONE', *, *, #10, .T. ) ;
#157 = DIRECTION ( 'NONE',  ( -1.000000000000000000, 0.0000000000000000000, -0.0000000000000000000 ) ) ;
#158 = DIRECTION ( 'NONE',  ( -1.000000000000000000, -0.0000000000000000000, -0.0000000000000000000 ) ) ;
#159 = CARTESIAN_POINT ( 'NONE',  ( 5.000000000000000000, 1.500000000000000000, -1.500000000000000000 ) ) ;
#160 = MECHANICAL_CONTEXT ( 'NONE', #177, 'mechanical' ) ;
#161 = AXIS2_PLACEMENT_3D ( 'NONE', #122, #235, #157 ) ;
#162 = CALENDAR_DATE ( 2018, 26, 12 ) ;
#163 = PERSON_AND_ORGANIZATION_ROLE ( 'design_supplier' ) ;
#164 = CC_DESIGN_APPROVAL ( #69, ( #31 ) ) ;
#165 = VECTOR ( 'NONE', #219, 1000.000000000000000 ) ;
#166 = EDGE_CURVE ( 'NONE', #212, #43, #63, .T. ) ;
#167 = ORIENTED_EDGE ( 'NONE', *, *, #134, .F. ) ;
#168 = DATE_AND_TIME ( #45, #210 ) ;
#169 = CALENDAR_DATE ( 2018, 26, 12 ) ;
#170 = LINE ( 'NONE', #105, #37 ) ;
#171 = ORIENTED_EDGE ( 'NONE', *, *, #51, .F. ) ;
#172 = ORIENTED_EDGE ( 'NONE', *, *, #51, .T. ) ;
#173 = PERSON_AND_ORGANIZATION ( #123, #183 ) ;
#174 = DIRECTION ( 'NONE',  ( 0.0000000000000000000, -1.000000000000000000, -1.445602896647339200E-016 ) ) ;
#175 = CARTESIAN_POINT ( 'NONE',  ( 5.000000000000000000, -1.500000000000000400, 1.500000000000000000 ) ) ;
#176 = ORIENTED_EDGE ( 'NONE', *, *, #134, .T. ) ;
#177 = APPLICATION_CONTEXT ( 'configuration controlled 3d designs of mechanical parts and assemblies' ) ;
#178 = CARTESIAN_POINT ( 'NONE',  ( 5.000000000000000000, -1.500000000000000000, -1.500000000000000000 ) ) ;
#179 = APPROVAL_ROLE ( '' ) ;
#180 = LOCAL_TIME ( 13, 1, 25.00000000000000000, #28 ) ;
#181 = ORIENTED_EDGE ( 'NONE', *, *, #214, .T. ) ;
#182 = PRODUCT_DEFINITION ( 'UNKNOWN', '', #31, #76 ) ;
#183 = ORGANIZATION ( 'UNSPECIFIED', 'UNSPECIFIED', '' ) ;
#184 = ORIENTED_EDGE ( 'NONE', *, *, #214, .F. ) ;
#185 = AXIS2_PLACEMENT_3D ( 'NONE', #57, #107, #129 ) ;
#186 = SHAPE_DEFINITION_REPRESENTATION ( #206, #58 ) ;
#187 = FACE_OUTER_BOUND ( 'NONE', #20, .T. ) ;
#188 = CARTESIAN_POINT ( 'NONE',  ( 5.000000000000000000, 1.499999999999999600, 1.500000000000000000 ) ) ;
#189 = DIRECTION ( 'NONE',  ( 0.0000000000000000000, 1.000000000000000000, 0.0000000000000000000 ) ) ;
#190 = ADVANCED_FACE ( 'NONE', ( #101 ), #140, .F. ) ;
#191 = PLANE ( 'NONE',  #80 ) ;
#192 = VECTOR ( 'NONE', #102, 1000.000000000000000 ) ;
#193 = ORIENTED_EDGE ( 'NONE', *, *, #195, .T. ) ;
#194 = CARTESIAN_POINT ( 'NONE',  ( 5.000000000000000000, 1.500000000000000000, -1.500000000000000000 ) ) ;
#195 = EDGE_CURVE ( 'NONE', #48, #39, #77, .T. ) ;
#196 = APPROVAL_STATUS ( 'not_yet_approved' ) ;
#197 = DATE_AND_TIME ( #162, #127 ) ;
#198 = APPLICATION_PROTOCOL_DEFINITION ( 'international standard', 'config_control_design', 1994, #109 ) ;
#199 = CC_DESIGN_PERSON_AND_ORGANIZATION_ASSIGNMENT ( #93, #25, ( #31 ) ) ;
#200 = APPROVAL_STATUS ( 'not_yet_approved' ) ;
#201 = FACE_OUTER_BOUND ( 'NONE', #11, .T. ) ;
#202 = VECTOR ( 'NONE', #49, 1000.000000000000000 ) ;
#203 = DIRECTION ( 'NONE',  ( 1.000000000000000000, 0.0000000000000000000, -0.0000000000000000000 ) ) ;
#204 = DATE_AND_TIME ( #98, #180 ) ;
#205 =( GEOMETRIC_REPRESENTATION_CONTEXT ( 3 ) GLOBAL_UNCERTAINTY_ASSIGNED_CONTEXT ( ( #128 ) ) GLOBAL_UNIT_ASSIGNED_CONTEXT ( ( #117, #6, #220 ) ) REPRESENTATION_CONTEXT ( 'NONE', 'WORKASPACE' ) );
#206 = PRODUCT_DEFINITION_SHAPE ( 'NONE', 'NONE',  #182 ) ;
#207 = PLANE ( 'NONE',  #26 ) ;
#208 = CC_DESIGN_PERSON_AND_ORGANIZATION_ASSIGNMENT ( #68, #59, ( #89 ) ) ;
#209 = DIRECTION ( 'NONE',  ( -0.0000000000000000000, 0.0000000000000000000, -1.000000000000000000 ) ) ;
#210 = LOCAL_TIME ( 13, 1, 25.00000000000000000, #33 ) ;
#211 = VECTOR ( 'NONE', #87, 1000.000000000000000 ) ;
#212 = VERTEX_POINT ( 'NONE', #194 ) ;
#213 = DIRECTION ( 'NONE',  ( -1.000000000000000000, -0.0000000000000000000, -0.0000000000000000000 ) ) ;
#214 = EDGE_CURVE ( 'NONE', #43, #82, #149, .T. ) ;
#215 = CARTESIAN_POINT ( 'NONE',  ( 5.000000000000000000, 1.500000000000000000, -1.500000000000000000 ) ) ;
#216 = CARTESIAN_POINT ( 'NONE',  ( -5.000000000000000000, -1.500000000000000000, -1.500000000000000000 ) ) ;
#217 = CARTESIAN_POINT ( 'NONE',  ( 5.000000000000000000, -1.500000000000000000, -1.500000000000000000 ) ) ;
#218 = ORIENTED_EDGE ( 'NONE', *, *, #221, .T. ) ;
#219 = DIRECTION ( 'NONE',  ( -0.0000000000000000000, 1.445602896647339200E-016, -1.000000000000000000 ) ) ;
#220 =( NAMED_UNIT ( * ) SI_UNIT ( $, .STERADIAN. ) SOLID_ANGLE_UNIT ( ) );
#221 = EDGE_CURVE ( 'NONE', #131, #135, #27, .T. ) ;
#222 = VECTOR ( 'NONE', #213, 1000.000000000000000 ) ;
#223 = ORIENTED_EDGE ( 'NONE', *, *, #166, .T. ) ;
#224 = EDGE_LOOP ( 'NONE', ( #193, #167, #46, #113 ) ) ;
#225 = CC_DESIGN_APPROVAL ( #126, ( #182 ) ) ;
#226 = LINE ( 'NONE', #217, #81 ) ;
#227 = LINE ( 'NONE', #231, #147 ) ;
#228 = AXIS2_PLACEMENT_3D ( 'NONE', #66, #234, #84 ) ;
#229 = PERSON_AND_ORGANIZATION ( #123, #183 ) ;
#230 = ORIENTED_EDGE ( 'NONE', *, *, #130, .T. ) ;
#231 = CARTESIAN_POINT ( 'NONE',  ( -5.000000000000000000, 1.500000000000000000, -1.500000000000000000 ) ) ;
#232 = PERSON_AND_ORGANIZATION ( #123, #183 ) ;
#233 = ORIENTED_EDGE ( 'NONE', *, *, #111, .F. ) ;
#234 = DIRECTION ( 'NONE',  ( 1.000000000000000000, 0.0000000000000000000, -0.0000000000000000000 ) ) ;
#235 = DIRECTION ( 'NONE',  ( 0.0000000000000000000, 0.0000000000000000000, -1.000000000000000000 ) ) ;
#236 = ORIENTED_EDGE ( 'NONE', *, *, #151, .T. ) ;
#237 = CARTESIAN_POINT ( 'NONE',  ( 5.000000000000000000, -1.500000000000000400, 1.500000000000000000 ) ) ;
ENDSEC;
END-ISO-10303-21;
