ISO-10303-21;
HEADER;
FILE_DESCRIPTION (( 'STEP AP203' ),
    '1' );
FILE_NAME ('Web Model 84457_47835.step',
    '2017-04-03T16:42:18',
    ( '' ),
    ( '' ),
    'SwSTEP 2.0',
    'SolidWorks 2016',
    '' );
FILE_SCHEMA (( 'CONFIG_CONTROL_DESIGN' ));
ENDSEC;

DATA;
#1 = PERSON_AND_ORGANIZATION ( #101, #16 ) ;
#2 = DATE_AND_TIME ( #33, #77 ) ;
#3 = ORIENTED_EDGE ( 'NONE', *, *, #47, .F. ) ;
#4 = CARTESIAN_POINT ( 'NONE',  ( 0.0000000000000000000, 0.0000000000000000000, 0.0000000000000000000 ) ) ;
#5 = PERSON_AND_ORGANIZATION ( #101, #16 ) ;
#6 = APPLICATION_PROTOCOL_DEFINITION ( 'international standard', 'config_control_design', 1994, #12 ) ;
#7 = DIRECTION ( 'NONE',  ( 0.0000000000000000000, 0.0000000000000000000, 1.000000000000000000 ) ) ;
#8 = PRODUCT_RELATED_PRODUCT_CATEGORY ( 'detail', '', ( #116 ) ) ;
#9 = DIRECTION ( 'NONE',  ( -0.0000000000000000000, -0.0000000000000000000, -1.000000000000000000 ) ) ;
#10 = VERTEX_POINT ( 'NONE', #132 ) ;
#11 = FACE_OUTER_BOUND ( 'NONE', #90, .T. ) ;
#12 = APPLICATION_CONTEXT ( 'configuration controlled 3d designs of mechanical parts and assemblies' ) ;
#13 = CARTESIAN_POINT ( 'NONE',  ( 0.0000000000000000000, 0.0000000000000000000, 4.000000000000000000 ) ) ;
#14 = VERTEX_POINT ( 'NONE', #68 ) ;
#15 = APPLICATION_CONTEXT ( 'configuration controlled 3d designs of mechanical parts and assemblies' ) ;
#16 = ORGANIZATION ( 'UNSPECIFIED', 'UNSPECIFIED', '' ) ;
#17 = AXIS2_PLACEMENT_3D ( 'NONE', #20, #7, #148 ) ;
#18 = DATE_AND_TIME ( #62, #96 ) ;
#19 = CIRCLE ( 'NONE', #108, 20.00000000000000000 ) ;
#20 = CARTESIAN_POINT ( 'NONE',  ( 0.0000000000000000000, 0.0000000000000000000, 0.0000000000000000000 ) ) ;
#21 = CARTESIAN_POINT ( 'NONE',  ( 0.0000000000000000000, 0.0000000000000000000, 4.000000000000000000 ) ) ;
#22 = DIRECTION ( 'NONE',  ( 1.000000000000000000, 0.0000000000000000000, 0.0000000000000000000 ) ) ;
#23 =( LENGTH_UNIT ( ) NAMED_UNIT ( * ) SI_UNIT ( .MILLI., .METRE. ) );
#24 = MECHANICAL_CONTEXT ( 'NONE', #12, 'mechanical' ) ;
#25 = PERSON_AND_ORGANIZATION ( #101, #16 ) ;
#26 = CC_DESIGN_PERSON_AND_ORGANIZATION_ASSIGNMENT ( #110, #174, ( #164 ) ) ;
#27 = FACE_OUTER_BOUND ( 'NONE', #112, .T. ) ;
#28 = CARTESIAN_POINT ( 'NONE',  ( -20.00000000000000000, 0.0000000000000000000, 4.000000000000000000 ) ) ;
#29 = DIRECTION ( 'NONE',  ( 0.0000000000000000000, 0.0000000000000000000, 1.000000000000000000 ) ) ;
#30 = PERSON_AND_ORGANIZATION ( #101, #16 ) ;
#31 = ORIENTED_EDGE ( 'NONE', *, *, #66, .F. ) ;
#32 = CALENDAR_DATE ( 2017, 3, 4 ) ;
#33 = CALENDAR_DATE ( 2017, 3, 4 ) ;
#34 = DESIGN_CONTEXT ( 'detailed design', #15, 'design' ) ;
#35 = DIRECTION ( 'NONE',  ( 0.0000000000000000000, 0.0000000000000000000, 1.000000000000000000 ) ) ;
#36 = CIRCLE ( 'NONE', #61, 20.00000000000000000 ) ;
#37 = DATE_AND_TIME ( #80, #65 ) ;
#38 = COORDINATED_UNIVERSAL_TIME_OFFSET ( 5, 0, .BEHIND. ) ;
#39 = APPROVAL_STATUS ( 'not_yet_approved' ) ;
#40 =( NAMED_UNIT ( * ) SI_UNIT ( $, .STERADIAN. ) SOLID_ANGLE_UNIT ( ) );
#41 = CARTESIAN_POINT ( 'NONE',  ( 0.0000000000000000000, 0.0000000000000000000, 0.0000000000000000000 ) ) ;
#42 = CARTESIAN_POINT ( 'NONE',  ( 0.0000000000000000000, 0.0000000000000000000, 0.0000000000000000000 ) ) ;
#43 = COORDINATED_UNIVERSAL_TIME_OFFSET ( 5, 0, .BEHIND. ) ;
#44 = CLOSED_SHELL ( 'NONE', ( #147, #125, #165, #70 ) ) ;
#45 = CC_DESIGN_PERSON_AND_ORGANIZATION_ASSIGNMENT ( #30, #60, ( #92 ) ) ;
#46 = LOCAL_TIME ( 12, 42, 18.00000000000000000, #38 ) ;
#47 = EDGE_CURVE ( 'NONE', #10, #155, #171, .T. ) ;
#48 = CC_DESIGN_DATE_AND_TIME_ASSIGNMENT ( #67, #78, ( #92 ) ) ;
#49 = ADVANCED_BREP_SHAPE_REPRESENTATION ( 'Web Model 84457_47835', ( #51, #17 ), #117 ) ;
#50 = VERTEX_POINT ( 'NONE', #28 ) ;
#51 = MANIFOLD_SOLID_BREP ( 'Extrude1', #44 ) ;
#52 = DIRECTION ( 'NONE',  ( 0.0000000000000000000, 0.0000000000000000000, 1.000000000000000000 ) ) ;
#53 = CIRCLE ( 'NONE', #111, 20.00000000000000000 ) ;
#54 = CARTESIAN_POINT ( 'NONE',  ( 20.00000000000000000, 2.449293598294706500E-015, 0.0000000000000000000 ) ) ;
#55 = CARTESIAN_POINT ( 'NONE',  ( -20.00000000000000000, 0.0000000000000000000, 4.000000000000000000 ) ) ;
#56 = VECTOR ( 'NONE', #109, 1000.000000000000000 ) ;
#57 = ORIENTED_EDGE ( 'NONE', *, *, #120, .T. ) ;
#58 = ORIENTED_EDGE ( 'NONE', *, *, #59, .F. ) ;
#59 = EDGE_CURVE ( 'NONE', #10, #50, #19, .T. ) ;
#60 = PERSON_AND_ORGANIZATION_ROLE ( 'classification_officer' ) ;
#61 = AXIS2_PLACEMENT_3D ( 'NONE', #4, #98, #129 ) ;
#62 = CALENDAR_DATE ( 2017, 3, 4 ) ;
#63 = ORIENTED_EDGE ( 'NONE', *, *, #157, .T. ) ;
#64 = PERSON_AND_ORGANIZATION_ROLE ( 'design_supplier' ) ;
#65 = LOCAL_TIME ( 12, 42, 18.00000000000000000, #43 ) ;
#66 = EDGE_CURVE ( 'NONE', #50, #10, #163, .T. ) ;
#67 = DATE_AND_TIME ( #104, #139 ) ;
#68 = CARTESIAN_POINT ( 'NONE',  ( -20.00000000000000000, 0.0000000000000000000, 0.0000000000000000000 ) ) ;
#69 = AXIS2_PLACEMENT_3D ( 'NONE', #151, #114, #168 ) ;
#70 = ADVANCED_FACE ( 'NONE', ( #11 ), #175, .F. ) ;
#71 = PERSON_AND_ORGANIZATION ( #101, #16 ) ;
#72 = CC_DESIGN_APPROVAL ( #149, ( #164 ) ) ;
#73 = UNCERTAINTY_MEASURE_WITH_UNIT (LENGTH_MEASURE( 1.000000000000000100E-005 ), #23, 'distance_accuracy_value', 'NONE');
#74 = DIRECTION ( 'NONE',  ( -1.000000000000000000, 0.0000000000000000000, 0.0000000000000000000 ) ) ;
#75 = ORIENTED_EDGE ( 'NONE', *, *, #120, .F. ) ;
#76 = DIRECTION ( 'NONE',  ( 0.0000000000000000000, 0.0000000000000000000, 1.000000000000000000 ) ) ;
#77 = LOCAL_TIME ( 12, 42, 18.00000000000000000, #115 ) ;
#78 = DATE_TIME_ROLE ( 'classification_date' ) ;
#79 = LINE ( 'NONE', #55, #156 ) ;
#80 = CALENDAR_DATE ( 2017, 3, 4 ) ;
#81 = CC_DESIGN_APPROVAL ( #130, ( #137 ) ) ;
#82 = FACE_OUTER_BOUND ( 'NONE', #153, .T. ) ;
#83 = APPLICATION_PROTOCOL_DEFINITION ( 'international standard', 'config_control_design', 1994, #15 ) ;
#84 = CC_DESIGN_PERSON_AND_ORGANIZATION_ASSIGNMENT ( #71, #64, ( #164 ) ) ;
#85 = APPROVAL_STATUS ( 'not_yet_approved' ) ;
#86 = EDGE_CURVE ( 'NONE', #50, #14, #79, .T. ) ;
#87 = CYLINDRICAL_SURFACE ( 'NONE', #97, 20.00000000000000000 ) ;
#88 = AXIS2_PLACEMENT_3D ( 'NONE', #13, #161, #93 ) ;
#89 = PERSON_AND_ORGANIZATION ( #101, #16 ) ;
#90 = EDGE_LOOP ( 'NONE', ( #102, #75 ) ) ;
#91 = CC_DESIGN_PERSON_AND_ORGANIZATION_ASSIGNMENT ( #150, #122, ( #137 ) ) ;
#92 = SECURITY_CLASSIFICATION ( '', '', #100 ) ;
#93 = DIRECTION ( 'NONE',  ( 1.000000000000000000, 0.0000000000000000000, 0.0000000000000000000 ) ) ;
#94 = ORIENTED_EDGE ( 'NONE', *, *, #86, .T. ) ;
#95 = APPROVAL_ROLE ( '' ) ;
#96 = LOCAL_TIME ( 12, 42, 18.00000000000000000, #134 ) ;
#97 = AXIS2_PLACEMENT_3D ( 'NONE', #123, #131, #74 ) ;
#98 = DIRECTION ( 'NONE',  ( 0.0000000000000000000, 0.0000000000000000000, 1.000000000000000000 ) ) ;
#99 =( NAMED_UNIT ( * ) PLANE_ANGLE_UNIT ( ) SI_UNIT ( $, .RADIAN. ) );
#100 = SECURITY_CLASSIFICATION_LEVEL ( 'unclassified' ) ;
#101 = PERSON ( 'UNSPECIFIED', 'UNSPECIFIED', 'UNSPECIFIED', ('UNSPECIFIED'), ('UNSPECIFIED'), ('UNSPECIFIED') ) ;
#102 = ORIENTED_EDGE ( 'NONE', *, *, #157, .F. ) ;
#103 = CC_DESIGN_DATE_AND_TIME_ASSIGNMENT ( #37, #158, ( #137 ) ) ;
#104 = CALENDAR_DATE ( 2017, 3, 4 ) ;
#105 = AXIS2_PLACEMENT_3D ( 'NONE', #21, #76, #138 ) ;
#106 = ORIENTED_EDGE ( 'NONE', *, *, #66, .T. ) ;
#107 = ORIENTED_EDGE ( 'NONE', *, *, #86, .F. ) ;
#108 = AXIS2_PLACEMENT_3D ( 'NONE', #167, #35, #113 ) ;
#109 = DIRECTION ( 'NONE',  ( -0.0000000000000000000, -0.0000000000000000000, -1.000000000000000000 ) ) ;
#110 = PERSON_AND_ORGANIZATION ( #101, #16 ) ;
#111 = AXIS2_PLACEMENT_3D ( 'NONE', #41, #29, #22 ) ;
#112 = EDGE_LOOP ( 'NONE', ( #3, #31, #94, #63 ) ) ;
#113 = DIRECTION ( 'NONE',  ( 1.000000000000000000, 0.0000000000000000000, 0.0000000000000000000 ) ) ;
#114 = DIRECTION ( 'NONE',  ( -0.0000000000000000000, -0.0000000000000000000, -1.000000000000000000 ) ) ;
#115 = COORDINATED_UNIVERSAL_TIME_OFFSET ( 5, 0, .BEHIND. ) ;
#116 = PRODUCT ( 'Web Model 84457_47835', 'Web Model 84457_47835', '', ( #24 ) ) ;
#117 =( GEOMETRIC_REPRESENTATION_CONTEXT ( 3 ) GLOBAL_UNCERTAINTY_ASSIGNED_CONTEXT ( ( #73 ) ) GLOBAL_UNIT_ASSIGNED_CONTEXT ( ( #23, #99, #40 ) ) REPRESENTATION_CONTEXT ( 'NONE', 'WORKASPACE' ) );
#118 = APPROVAL_DATE_TIME ( #124, #130 ) ;
#119 = PERSON_AND_ORGANIZATION_ROLE ( 'design_owner' ) ;
#120 = EDGE_CURVE ( 'NONE', #155, #14, #36, .T. ) ;
#121 = CC_DESIGN_SECURITY_CLASSIFICATION ( #92, ( #164 ) ) ;
#122 = PERSON_AND_ORGANIZATION_ROLE ( 'creator' ) ;
#123 = CARTESIAN_POINT ( 'NONE',  ( 0.0000000000000000000, 0.0000000000000000000, 4.000000000000000000 ) ) ;
#124 = DATE_AND_TIME ( #32, #46 ) ;
#125 = ADVANCED_FACE ( 'NONE', ( #27 ), #146, .T. ) ;
#126 = APPROVAL_PERSON_ORGANIZATION ( #89, #130, #154 ) ;
#127 = APPROVAL_STATUS ( 'not_yet_approved' ) ;
#128 = APPROVAL_ROLE ( '' ) ;
#129 = DIRECTION ( 'NONE',  ( 1.000000000000000000, 0.0000000000000000000, 0.0000000000000000000 ) ) ;
#130 = APPROVAL ( #85, 'UNSPECIFIED' ) ;
#131 = DIRECTION ( 'NONE',  ( -0.0000000000000000000, -0.0000000000000000000, -1.000000000000000000 ) ) ;
#132 = CARTESIAN_POINT ( 'NONE',  ( 20.00000000000000000, 2.449293598294706500E-015, 4.000000000000000000 ) ) ;
#133 = ORIENTED_EDGE ( 'NONE', *, *, #47, .T. ) ;
#134 = COORDINATED_UNIVERSAL_TIME_OFFSET ( 5, 0, .BEHIND. ) ;
#135 = SHAPE_DEFINITION_REPRESENTATION ( #142, #49 ) ;
#136 = DIRECTION ( 'NONE',  ( 1.000000000000000000, 0.0000000000000000000, -0.0000000000000000000 ) ) ;
#137 = PRODUCT_DEFINITION ( 'UNKNOWN', '', #164, #34 ) ;
#138 = DIRECTION ( 'NONE',  ( 1.000000000000000000, 0.0000000000000000000, -0.0000000000000000000 ) ) ;
#139 = LOCAL_TIME ( 12, 42, 18.00000000000000000, #173 ) ;
#140 = PLANE ( 'NONE',  #105 ) ;
#141 = AXIS2_PLACEMENT_3D ( 'NONE', #42, #52, #136 ) ;
#142 = PRODUCT_DEFINITION_SHAPE ( 'NONE', 'NONE',  #137 ) ;
#143 = APPROVAL_DATE_TIME ( #2, #149 ) ;
#144 = EDGE_LOOP ( 'NONE', ( #106, #170 ) ) ;
#145 = APPROVAL_PERSON_ORGANIZATION ( #5, #149, #128 ) ;
#146 = CYLINDRICAL_SURFACE ( 'NONE', #69, 20.00000000000000000 ) ;
#147 = ADVANCED_FACE ( 'NONE', ( #82 ), #87, .T. ) ;
#148 = DIRECTION ( 'NONE',  ( 1.000000000000000000, 0.0000000000000000000, 0.0000000000000000000 ) ) ;
#149 = APPROVAL ( #127, 'UNSPECIFIED' ) ;
#150 = PERSON_AND_ORGANIZATION ( #101, #16 ) ;
#151 = CARTESIAN_POINT ( 'NONE',  ( 0.0000000000000000000, 0.0000000000000000000, 4.000000000000000000 ) ) ;
#152 = CC_DESIGN_PERSON_AND_ORGANIZATION_ASSIGNMENT ( #1, #119, ( #116 ) ) ;
#153 = EDGE_LOOP ( 'NONE', ( #58, #133, #57, #107 ) ) ;
#154 = APPROVAL_ROLE ( '' ) ;
#155 = VERTEX_POINT ( 'NONE', #54 ) ;
#156 = VECTOR ( 'NONE', #9, 1000.000000000000000 ) ;
#157 = EDGE_CURVE ( 'NONE', #14, #155, #53, .T. ) ;
#158 = DATE_TIME_ROLE ( 'creation_date' ) ;
#159 = APPROVAL_DATE_TIME ( #18, #162 ) ;
#160 = CARTESIAN_POINT ( 'NONE',  ( 20.00000000000000000, 2.449293598294706500E-015, 4.000000000000000000 ) ) ;
#161 = DIRECTION ( 'NONE',  ( 0.0000000000000000000, 0.0000000000000000000, 1.000000000000000000 ) ) ;
#162 = APPROVAL ( #39, 'UNSPECIFIED' ) ;
#163 = CIRCLE ( 'NONE', #88, 20.00000000000000000 ) ;
#164 = PRODUCT_DEFINITION_FORMATION_WITH_SPECIFIED_SOURCE ( 'ANY', '', #116, .NOT_KNOWN. ) ;
#165 = ADVANCED_FACE ( 'NONE', ( #169 ), #140, .T. ) ;
#166 = APPROVAL_PERSON_ORGANIZATION ( #25, #162, #95 ) ;
#167 = CARTESIAN_POINT ( 'NONE',  ( 0.0000000000000000000, 0.0000000000000000000, 4.000000000000000000 ) ) ;
#168 = DIRECTION ( 'NONE',  ( -1.000000000000000000, 0.0000000000000000000, 0.0000000000000000000 ) ) ;
#169 = FACE_OUTER_BOUND ( 'NONE', #144, .T. ) ;
#170 = ORIENTED_EDGE ( 'NONE', *, *, #59, .T. ) ;
#171 = LINE ( 'NONE', #160, #56 ) ;
#172 = CC_DESIGN_APPROVAL ( #162, ( #92 ) ) ;
#173 = COORDINATED_UNIVERSAL_TIME_OFFSET ( 5, 0, .BEHIND. ) ;
#174 = PERSON_AND_ORGANIZATION_ROLE ( 'creator' ) ;
#175 = PLANE ( 'NONE',  #141 ) ;
ENDSEC;
END-ISO-10303-21;
