ISO-10303-21;
HEADER;
FILE_DESCRIPTION (( 'STEP AP203' ),
    '1' );
FILE_NAME ('Web Model 46664_45313.step',
    '2017-04-10T15:39:23',
    ( '' ),
    ( '' ),
    'SwSTEP 2.0',
    'SolidWorks 2016',
    '' );
FILE_SCHEMA (( 'CONFIG_CONTROL_DESIGN' ));
ENDSEC;

DATA;
#1 = PERSON_AND_ORGANIZATION_ROLE ( 'design_supplier' ) ;
#2 = CC_DESIGN_APPROVAL ( #117, ( #75 ) ) ;
#3 = CARTESIAN_POINT ( 'NONE',  ( 0.0000000000000000000, 0.0000000000000000000, -0.5000000000000000000 ) ) ;
#4 = COORDINATED_UNIVERSAL_TIME_OFFSET ( 5, 0, .BEHIND. ) ;
#5 = MANIFOLD_SOLID_BREP ( 'Revolve1', #120 ) ;
#6 = CC_DESIGN_PERSON_AND_ORGANIZATION_ASSIGNMENT ( #57, #72, ( #75 ) ) ;
#7 = DIRECTION ( 'NONE',  ( 0.0000000000000000000, -0.0000000000000000000, 1.000000000000000000 ) ) ;
#8 =( GEOMETRIC_REPRESENTATION_CONTEXT ( 3 ) GLOBAL_UNCERTAINTY_ASSIGNED_CONTEXT ( ( #68 ) ) GLOBAL_UNIT_ASSIGNED_CONTEXT ( ( #36, #148, #40 ) ) REPRESENTATION_CONTEXT ( 'NONE', 'WORKASPACE' ) );
#9 = ORIENTED_EDGE ( 'NONE', *, *, #118, .F. ) ;
#10 = DIRECTION ( 'NONE',  ( -0.0000000000000000000, -0.0000000000000000000, 1.000000000000000000 ) ) ;
#11 = CYLINDRICAL_SURFACE ( 'NONE', #59, 6.250000000000000000 ) ;
#12 = SECURITY_CLASSIFICATION ( '', '', #21 ) ;
#13 = PERSON_AND_ORGANIZATION ( #96, #78 ) ;
#14 = AXIS2_PLACEMENT_3D ( 'NONE', #138, #123, #83 ) ;
#15 = ORIENTED_EDGE ( 'NONE', *, *, #105, .F. ) ;
#16 = DIRECTION ( 'NONE',  ( 1.000000000000000000, 0.0000000000000000000, 0.0000000000000000000 ) ) ;
#17 = PERSON_AND_ORGANIZATION ( #96, #78 ) ;
#18 = CARTESIAN_POINT ( 'NONE',  ( -6.250000000000000000, 7.654042494670957600E-016, 0.0000000000000000000 ) ) ;
#19 = DIRECTION ( 'NONE',  ( -0.0000000000000000000, -0.0000000000000000000, 1.000000000000000000 ) ) ;
#20 = CALENDAR_DATE ( 2017, 10, 4 ) ;
#21 = SECURITY_CLASSIFICATION_LEVEL ( 'unclassified' ) ;
#22 = VECTOR ( 'NONE', #140, 1000.000000000000000 ) ;
#23 = VECTOR ( 'NONE', #116, 1000.000000000000000 ) ;
#24 = DESIGN_CONTEXT ( 'detailed design', #175, 'design' ) ;
#25 = CARTESIAN_POINT ( 'NONE',  ( 0.0000000000000000000, 0.0000000000000000000, 0.5000000000000000000 ) ) ;
#26 = CC_DESIGN_APPROVAL ( #49, ( #12 ) ) ;
#27 = APPROVAL_ROLE ( '' ) ;
#28 = VERTEX_POINT ( 'NONE', #54 ) ;
#29 = EDGE_LOOP ( 'NONE', ( #98, #169, #15, #106 ) ) ;
#30 = LINE ( 'NONE', #124, #22 ) ;
#31 = DATE_AND_TIME ( #133, #91 ) ;
#32 = EDGE_CURVE ( 'NONE', #87, #48, #30, .T. ) ;
#33 = ADVANCED_BREP_SHAPE_REPRESENTATION ( 'Web Model 46664_45313', ( #5, #77 ), #8 ) ;
#34 = ORIENTED_EDGE ( 'NONE', *, *, #60, .F. ) ;
#35 = CC_DESIGN_DATE_AND_TIME_ASSIGNMENT ( #159, #71, ( #12 ) ) ;
#36 =( LENGTH_UNIT ( ) NAMED_UNIT ( * ) SI_UNIT ( .MILLI., .METRE. ) );
#37 = AXIS2_PLACEMENT_3D ( 'NONE', #25, #166, #45 ) ;
#38 = DIRECTION ( 'NONE',  ( 1.000000000000000000, 0.0000000000000000000, 0.0000000000000000000 ) ) ;
#39 = COORDINATED_UNIVERSAL_TIME_OFFSET ( 5, 0, .BEHIND. ) ;
#40 =( NAMED_UNIT ( * ) SI_UNIT ( $, .STERADIAN. ) SOLID_ANGLE_UNIT ( ) );
#41 = DIRECTION ( 'NONE',  ( 1.000000000000000000, 0.0000000000000000000, 0.0000000000000000000 ) ) ;
#42 = PLANE ( 'NONE',  #14 ) ;
#43 = APPROVAL_PERSON_ORGANIZATION ( #69, #49, #168 ) ;
#44 = CIRCLE ( 'NONE', #37, 6.250000000000000000 ) ;
#45 = DIRECTION ( 'NONE',  ( 1.000000000000000000, 0.0000000000000000000, 0.0000000000000000000 ) ) ;
#46 = AXIS2_PLACEMENT_3D ( 'NONE', #3, #7, #41 ) ;
#47 = COORDINATED_UNIVERSAL_TIME_OFFSET ( 5, 0, .BEHIND. ) ;
#48 = VERTEX_POINT ( 'NONE', #95 ) ;
#49 = APPROVAL ( #125, 'UNSPECIFIED' ) ;
#50 = LOCAL_TIME ( 11, 39, 23.00000000000000000, #132 ) ;
#51 = AXIS2_PLACEMENT_3D ( 'NONE', #146, #79, #38 ) ;
#52 = CYLINDRICAL_SURFACE ( 'NONE', #171, 6.250000000000000000 ) ;
#53 = CIRCLE ( 'NONE', #112, 6.250000000000000000 ) ;
#54 = CARTESIAN_POINT ( 'NONE',  ( -6.250000000000000000, 7.654042494670957600E-016, -0.5000000000000000000 ) ) ;
#55 = ORIENTED_EDGE ( 'NONE', *, *, #103, .T. ) ;
#56 = DIRECTION ( 'NONE',  ( 1.000000000000000000, 0.0000000000000000000, 0.0000000000000000000 ) ) ;
#57 = PERSON_AND_ORGANIZATION ( #96, #78 ) ;
#58 = CC_DESIGN_PERSON_AND_ORGANIZATION_ASSIGNMENT ( #13, #162, ( #12 ) ) ;
#59 = AXIS2_PLACEMENT_3D ( 'NONE', #150, #10, #113 ) ;
#60 = EDGE_CURVE ( 'NONE', #87, #28, #143, .T. ) ;
#61 = ORIENTED_EDGE ( 'NONE', *, *, #81, .F. ) ;
#62 = LOCAL_TIME ( 11, 39, 23.00000000000000000, #4 ) ;
#63 = APPROVAL_PERSON_ORGANIZATION ( #73, #117, #27 ) ;
#64 = ADVANCED_FACE ( 'NONE', ( #155 ), #84, .F. ) ;
#65 = CC_DESIGN_PERSON_AND_ORGANIZATION_ASSIGNMENT ( #170, #102, ( #167 ) ) ;
#66 = PERSON_AND_ORGANIZATION ( #96, #78 ) ;
#67 = CARTESIAN_POINT ( 'NONE',  ( 0.0000000000000000000, 0.0000000000000000000, -0.5000000000000000000 ) ) ;
#68 = UNCERTAINTY_MEASURE_WITH_UNIT (LENGTH_MEASURE( 1.000000000000000100E-005 ), #36, 'distance_accuracy_value', 'NONE');
#69 = PERSON_AND_ORGANIZATION ( #96, #78 ) ;
#70 = APPLICATION_PROTOCOL_DEFINITION ( 'international standard', 'config_control_design', 1994, #115 ) ;
#71 = DATE_TIME_ROLE ( 'classification_date' ) ;
#72 = PERSON_AND_ORGANIZATION_ROLE ( 'creator' ) ;
#73 = PERSON_AND_ORGANIZATION ( #96, #78 ) ;
#74 = CALENDAR_DATE ( 2017, 10, 4 ) ;
#75 = PRODUCT_DEFINITION ( 'UNKNOWN', '', #151, #24 ) ;
#76 = ORIENTED_EDGE ( 'NONE', *, *, #103, .F. ) ;
#77 = AXIS2_PLACEMENT_3D ( 'NONE', #110, #94, #16 ) ;
#78 = ORGANIZATION ( 'UNSPECIFIED', 'UNSPECIFIED', '' ) ;
#79 = DIRECTION ( 'NONE',  ( -0.0000000000000000000, -0.0000000000000000000, 1.000000000000000000 ) ) ;
#80 = PERSON_AND_ORGANIZATION_ROLE ( 'creator' ) ;
#81 = EDGE_CURVE ( 'NONE', #28, #87, #156, .T. ) ;
#82 = APPROVAL_DATE_TIME ( #31, #49 ) ;
#83 = DIRECTION ( 'NONE',  ( -1.000000000000000000, 0.0000000000000000000, -0.0000000000000000000 ) ) ;
#84 = PLANE ( 'NONE',  #46 ) ;
#85 = CC_DESIGN_SECURITY_CLASSIFICATION ( #12, ( #151 ) ) ;
#86 = CALENDAR_DATE ( 2017, 10, 4 ) ;
#87 = VERTEX_POINT ( 'NONE', #137 ) ;
#88 = ORIENTED_EDGE ( 'NONE', *, *, #32, .T. ) ;
#89 = CC_DESIGN_APPROVAL ( #142, ( #151 ) ) ;
#90 = EDGE_LOOP ( 'NONE', ( #34, #61 ) ) ;
#91 = LOCAL_TIME ( 11, 39, 23.00000000000000000, #39 ) ;
#92 = PRODUCT_RELATED_PRODUCT_CATEGORY ( 'detail', '', ( #167 ) ) ;
#93 = CARTESIAN_POINT ( 'NONE',  ( 0.0000000000000000000, 0.0000000000000000000, 0.5000000000000000000 ) ) ;
#94 = DIRECTION ( 'NONE',  ( 0.0000000000000000000, 0.0000000000000000000, 1.000000000000000000 ) ) ;
#95 = CARTESIAN_POINT ( 'NONE',  ( 6.250000000000000000, 0.0000000000000000000, 0.5000000000000000000 ) ) ;
#96 = PERSON ( 'UNSPECIFIED', 'UNSPECIFIED', 'UNSPECIFIED', ('UNSPECIFIED'), ('UNSPECIFIED'), ('UNSPECIFIED') ) ;
#97 = DIRECTION ( 'NONE',  ( 1.000000000000000000, 0.0000000000000000000, 0.0000000000000000000 ) ) ;
#98 = ORIENTED_EDGE ( 'NONE', *, *, #60, .T. ) ;
#99 = APPROVAL_DATE_TIME ( #145, #142 ) ;
#100 = CALENDAR_DATE ( 2017, 10, 4 ) ;
#101 = CC_DESIGN_PERSON_AND_ORGANIZATION_ASSIGNMENT ( #66, #1, ( #151 ) ) ;
#102 = PERSON_AND_ORGANIZATION_ROLE ( 'design_owner' ) ;
#103 = EDGE_CURVE ( 'NONE', #128, #48, #44, .T. ) ;
#104 = PERSON_AND_ORGANIZATION ( #96, #78 ) ;
#105 = EDGE_CURVE ( 'NONE', #48, #128, #53, .T. ) ;
#106 = ORIENTED_EDGE ( 'NONE', *, *, #32, .F. ) ;
#107 = CC_DESIGN_PERSON_AND_ORGANIZATION_ASSIGNMENT ( #104, #80, ( #151 ) ) ;
#108 = PRODUCT_DEFINITION_SHAPE ( 'NONE', 'NONE',  #75 ) ;
#109 = APPROVAL_STATUS ( 'not_yet_approved' ) ;
#110 = CARTESIAN_POINT ( 'NONE',  ( 0.0000000000000000000, 0.0000000000000000000, 0.0000000000000000000 ) ) ;
#111 = ADVANCED_FACE ( 'NONE', ( #147 ), #42, .F. ) ;
#112 = AXIS2_PLACEMENT_3D ( 'NONE', #93, #19, #97 ) ;
#113 = DIRECTION ( 'NONE',  ( 1.000000000000000000, 0.0000000000000000000, 0.0000000000000000000 ) ) ;
#114 = APPLICATION_PROTOCOL_DEFINITION ( 'international standard', 'config_control_design', 1994, #175 ) ;
#115 = APPLICATION_CONTEXT ( 'configuration controlled 3d designs of mechanical parts and assemblies' ) ;
#116 = DIRECTION ( 'NONE',  ( -0.0000000000000000000, -0.0000000000000000000, 1.000000000000000000 ) ) ;
#117 = APPROVAL ( #152, 'UNSPECIFIED' ) ;
#118 = EDGE_CURVE ( 'NONE', #28, #128, #149, .T. ) ;
#119 = LOCAL_TIME ( 11, 39, 23.00000000000000000, #47 ) ;
#120 = CLOSED_SHELL ( 'NONE', ( #172, #111, #129, #64 ) ) ;
#121 = DIRECTION ( 'NONE',  ( 1.000000000000000000, 0.0000000000000000000, 0.0000000000000000000 ) ) ;
#122 = FACE_OUTER_BOUND ( 'NONE', #29, .T. ) ;
#123 = DIRECTION ( 'NONE',  ( 0.0000000000000000000, 0.0000000000000000000, -1.000000000000000000 ) ) ;
#124 = CARTESIAN_POINT ( 'NONE',  ( 6.250000000000000000, 0.0000000000000000000, 0.0000000000000000000 ) ) ;
#125 = APPROVAL_STATUS ( 'not_yet_approved' ) ;
#126 = DATE_AND_TIME ( #74, #50 ) ;
#127 = SHAPE_DEFINITION_REPRESENTATION ( #108, #33 ) ;
#128 = VERTEX_POINT ( 'NONE', #139 ) ;
#129 = ADVANCED_FACE ( 'NONE', ( #157 ), #52, .T. ) ;
#130 = APPROVAL_DATE_TIME ( #141, #117 ) ;
#131 = CARTESIAN_POINT ( 'NONE',  ( 0.0000000000000000000, 0.0000000000000000000, 0.0000000000000000000 ) ) ;
#132 = COORDINATED_UNIVERSAL_TIME_OFFSET ( 5, 0, .BEHIND. ) ;
#133 = CALENDAR_DATE ( 2017, 10, 4 ) ;
#134 = COORDINATED_UNIVERSAL_TIME_OFFSET ( 5, 0, .BEHIND. ) ;
#135 = DIRECTION ( 'NONE',  ( -0.0000000000000000000, -0.0000000000000000000, 1.000000000000000000 ) ) ;
#136 = APPROVAL_PERSON_ORGANIZATION ( #17, #142, #164 ) ;
#137 = CARTESIAN_POINT ( 'NONE',  ( 6.250000000000000000, 0.0000000000000000000, -0.5000000000000000000 ) ) ;
#138 = CARTESIAN_POINT ( 'NONE',  ( 0.0000000000000000000, 0.0000000000000000000, 0.5000000000000000000 ) ) ;
#139 = CARTESIAN_POINT ( 'NONE',  ( -6.250000000000000000, 7.654042494670957600E-016, 0.5000000000000000000 ) ) ;
#140 = DIRECTION ( 'NONE',  ( -0.0000000000000000000, -0.0000000000000000000, 1.000000000000000000 ) ) ;
#141 = DATE_AND_TIME ( #86, #163 ) ;
#142 = APPROVAL ( #109, 'UNSPECIFIED' ) ;
#143 = CIRCLE ( 'NONE', #154, 6.250000000000000000 ) ;
#144 = EDGE_LOOP ( 'NONE', ( #9, #165, #88, #76 ) ) ;
#145 = DATE_AND_TIME ( #20, #62 ) ;
#146 = CARTESIAN_POINT ( 'NONE',  ( 0.0000000000000000000, 0.0000000000000000000, -0.5000000000000000000 ) ) ;
#147 = FACE_OUTER_BOUND ( 'NONE', #160, .T. ) ;
#148 =( NAMED_UNIT ( * ) PLANE_ANGLE_UNIT ( ) SI_UNIT ( $, .RADIAN. ) );
#149 = LINE ( 'NONE', #18, #23 ) ;
#150 = CARTESIAN_POINT ( 'NONE',  ( 0.0000000000000000000, 0.0000000000000000000, 0.0000000000000000000 ) ) ;
#151 = PRODUCT_DEFINITION_FORMATION_WITH_SPECIFIED_SOURCE ( 'ANY', '', #167, .NOT_KNOWN. ) ;
#152 = APPROVAL_STATUS ( 'not_yet_approved' ) ;
#153 = ORIENTED_EDGE ( 'NONE', *, *, #105, .T. ) ;
#154 = AXIS2_PLACEMENT_3D ( 'NONE', #67, #173, #121 ) ;
#155 = FACE_OUTER_BOUND ( 'NONE', #90, .T. ) ;
#156 = CIRCLE ( 'NONE', #51, 6.250000000000000000 ) ;
#157 = FACE_OUTER_BOUND ( 'NONE', #144, .T. ) ;
#158 = CC_DESIGN_DATE_AND_TIME_ASSIGNMENT ( #126, #174, ( #75 ) ) ;
#159 = DATE_AND_TIME ( #100, #119 ) ;
#160 = EDGE_LOOP ( 'NONE', ( #153, #55 ) ) ;
#161 = MECHANICAL_CONTEXT ( 'NONE', #115, 'mechanical' ) ;
#162 = PERSON_AND_ORGANIZATION_ROLE ( 'classification_officer' ) ;
#163 = LOCAL_TIME ( 11, 39, 23.00000000000000000, #134 ) ;
#164 = APPROVAL_ROLE ( '' ) ;
#165 = ORIENTED_EDGE ( 'NONE', *, *, #81, .T. ) ;
#166 = DIRECTION ( 'NONE',  ( -0.0000000000000000000, -0.0000000000000000000, 1.000000000000000000 ) ) ;
#167 = PRODUCT ( 'Web Model 46664_45313', 'Web Model 46664_45313', '', ( #161 ) ) ;
#168 = APPROVAL_ROLE ( '' ) ;
#169 = ORIENTED_EDGE ( 'NONE', *, *, #118, .T. ) ;
#170 = PERSON_AND_ORGANIZATION ( #96, #78 ) ;
#171 = AXIS2_PLACEMENT_3D ( 'NONE', #131, #135, #56 ) ;
#172 = ADVANCED_FACE ( 'NONE', ( #122 ), #11, .T. ) ;
#173 = DIRECTION ( 'NONE',  ( -0.0000000000000000000, -0.0000000000000000000, 1.000000000000000000 ) ) ;
#174 = DATE_TIME_ROLE ( 'creation_date' ) ;
#175 = APPLICATION_CONTEXT ( 'configuration controlled 3d designs of mechanical parts and assemblies' ) ;
ENDSEC;
END-ISO-10303-21;
