ISO-10303-21;
HEADER;
FILE_DESCRIPTION (( 'STEP AP203' ),
    '1' );
FILE_NAME ('Web Model 68491.STEP',
    '2017-01-31T20:05:20',
    ( '' ),
    ( '' ),
    'SwSTEP 2.0',
    'SolidWorks 2016',
    '' );
FILE_SCHEMA (( 'CONFIG_CONTROL_DESIGN' ));
ENDSEC;

DATA;
#1 = ADVANCED_BREP_SHAPE_REPRESENTATION ( 'Web Model 68491', ( #53, #129 ), #71 ) ;
#2 = PLANE ( 'NONE',  #127 ) ;
#3 = DESIGN_CONTEXT ( 'detailed design', #50, 'design' ) ;
#4 = AXIS2_PLACEMENT_3D ( 'NONE', #39, #93, #20 ) ;
#5 = CARTESIAN_POINT ( 'NONE',  ( 0.0000000000000000000, 0.0000000000000000000, 0.0000000000000000000 ) ) ;
#6 = APPROVAL_STATUS ( 'not_yet_approved' ) ;
#7 = CC_DESIGN_APPROVAL ( #128, ( #63 ) ) ;
#8 = APPROVAL_ROLE ( '' ) ;
#9 = PERSON_AND_ORGANIZATION_ROLE ( 'creator' ) ;
#10 = ORIENTED_EDGE ( 'NONE', *, *, #143, .T. ) ;
#11 = DATE_TIME_ROLE ( 'classification_date' ) ;
#12 = EDGE_CURVE ( 'NONE', #144, #72, #108, .T. ) ;
#13 = ORIENTED_EDGE ( 'NONE', *, *, #17, .T. ) ;
#14 = PERSON_AND_ORGANIZATION ( #62, #92 ) ;
#15 = FACE_OUTER_BOUND ( 'NONE', #171, .T. ) ;
#16 = CC_DESIGN_DATE_AND_TIME_ASSIGNMENT ( #123, #81, ( #74 ) ) ;
#17 = EDGE_CURVE ( 'NONE', #118, #105, #69, .T. ) ;
#18 = COORDINATED_UNIVERSAL_TIME_OFFSET ( 5, 0, .BEHIND. ) ;
#19 = DIRECTION ( 'NONE',  ( -1.000000000000000000, 0.0000000000000000000, 0.0000000000000000000 ) ) ;
#20 = DIRECTION ( 'NONE',  ( 1.000000000000000000, 0.0000000000000000000, 0.0000000000000000000 ) ) ;
#21 = CARTESIAN_POINT ( 'NONE',  ( 6.250000000000000000, 7.654042494670957600E-016, 2.000000000000000000 ) ) ;
#22 = FACE_OUTER_BOUND ( 'NONE', #149, .T. ) ;
#23 = AXIS2_PLACEMENT_3D ( 'NONE', #66, #106, #19 ) ;
#24 = PERSON_AND_ORGANIZATION_ROLE ( 'creator' ) ;
#25 = LOCAL_TIME ( 15, 5, 20.00000000000000000, #18 ) ;
#26 = ORIENTED_EDGE ( 'NONE', *, *, #117, .F. ) ;
#27 = PERSON_AND_ORGANIZATION_ROLE ( 'design_supplier' ) ;
#28 = CC_DESIGN_APPROVAL ( #168, ( #156 ) ) ;
#29 = EDGE_CURVE ( 'NONE', #72, #144, #46, .T. ) ;
#30 = CALENDAR_DATE ( 2017, 31, 1 ) ;
#31 = VECTOR ( 'NONE', #49, 1000.000000000000000 ) ;
#32 = DATE_AND_TIME ( #165, #34 ) ;
#33 = LINE ( 'NONE', #21, #77 ) ;
#34 = LOCAL_TIME ( 15, 5, 20.00000000000000000, #61 ) ;
#35 = CARTESIAN_POINT ( 'NONE',  ( 0.0000000000000000000, 0.0000000000000000000, 2.000000000000000000 ) ) ;
#36 = DIRECTION ( 'NONE',  ( 1.000000000000000000, 0.0000000000000000000, 0.0000000000000000000 ) ) ;
#37 = LOCAL_TIME ( 15, 5, 20.00000000000000000, #67 ) ;
#38 = CC_DESIGN_PERSON_AND_ORGANIZATION_ASSIGNMENT ( #60, #24, ( #156 ) ) ;
#39 = CARTESIAN_POINT ( 'NONE',  ( 0.0000000000000000000, 0.0000000000000000000, 0.0000000000000000000 ) ) ;
#40 = APPLICATION_PROTOCOL_DEFINITION ( 'international standard', 'config_control_design', 1994, #68 ) ;
#41 = APPROVAL_DATE_TIME ( #151, #103 ) ;
#42 = APPROVAL_STATUS ( 'not_yet_approved' ) ;
#43 = PERSON_AND_ORGANIZATION_ROLE ( 'classification_officer' ) ;
#44 = CARTESIAN_POINT ( 'NONE',  ( 0.0000000000000000000, 0.0000000000000000000, 2.000000000000000000 ) ) ;
#45 = AXIS2_PLACEMENT_3D ( 'NONE', #58, #96, #119 ) ;
#46 = CIRCLE ( 'NONE', #45, 6.250000000000000000 ) ;
#47 = PRODUCT ( 'Web Model 68491', 'Web Model 68491', '', ( #70 ) ) ;
#48 = DIRECTION ( 'NONE',  ( 1.000000000000000000, 0.0000000000000000000, -0.0000000000000000000 ) ) ;
#49 = DIRECTION ( 'NONE',  ( -0.0000000000000000000, -0.0000000000000000000, -1.000000000000000000 ) ) ;
#50 = APPLICATION_CONTEXT ( 'configuration controlled 3d designs of mechanical parts and assemblies' ) ;
#51 = CC_DESIGN_PERSON_AND_ORGANIZATION_ASSIGNMENT ( #113, #27, ( #156 ) ) ;
#52 = ORIENTED_EDGE ( 'NONE', *, *, #29, .F. ) ;
#53 = MANIFOLD_SOLID_BREP ( 'Extrude1', #115 ) ;
#54 = ORIENTED_EDGE ( 'NONE', *, *, #17, .F. ) ;
#55 = CARTESIAN_POINT ( 'NONE',  ( 6.250000000000000000, 7.654042494670957600E-016, 0.0000000000000000000 ) ) ;
#56 = CARTESIAN_POINT ( 'NONE',  ( 0.0000000000000000000, 0.0000000000000000000, 0.0000000000000000000 ) ) ;
#57 = ORIENTED_EDGE ( 'NONE', *, *, #29, .T. ) ;
#58 = CARTESIAN_POINT ( 'NONE',  ( 0.0000000000000000000, 0.0000000000000000000, 2.000000000000000000 ) ) ;
#59 = APPROVAL_PERSON_ORGANIZATION ( #91, #128, #112 ) ;
#60 = PERSON_AND_ORGANIZATION ( #62, #92 ) ;
#61 = COORDINATED_UNIVERSAL_TIME_OFFSET ( 5, 0, .BEHIND. ) ;
#62 = PERSON ( 'UNSPECIFIED', 'UNSPECIFIED', 'UNSPECIFIED', ('UNSPECIFIED'), ('UNSPECIFIED'), ('UNSPECIFIED') ) ;
#63 = SECURITY_CLASSIFICATION ( '', '', #140 ) ;
#64 = UNCERTAINTY_MEASURE_WITH_UNIT (LENGTH_MEASURE( 1.000000000000000100E-005 ), #111, 'distance_accuracy_value', 'NONE');
#65 = CALENDAR_DATE ( 2017, 31, 1 ) ;
#66 = CARTESIAN_POINT ( 'NONE',  ( 0.0000000000000000000, 0.0000000000000000000, 2.000000000000000000 ) ) ;
#67 = COORDINATED_UNIVERSAL_TIME_OFFSET ( 5, 0, .BEHIND. ) ;
#68 = APPLICATION_CONTEXT ( 'configuration controlled 3d designs of mechanical parts and assemblies' ) ;
#69 = CIRCLE ( 'NONE', #109, 6.250000000000000000 ) ;
#70 = MECHANICAL_CONTEXT ( 'NONE', #68, 'mechanical' ) ;
#71 =( GEOMETRIC_REPRESENTATION_CONTEXT ( 3 ) GLOBAL_UNCERTAINTY_ASSIGNED_CONTEXT ( ( #64 ) ) GLOBAL_UNIT_ASSIGNED_CONTEXT ( ( #111, #122, #150 ) ) REPRESENTATION_CONTEXT ( 'NONE', 'WORKASPACE' ) );
#72 = VERTEX_POINT ( 'NONE', #131 ) ;
#73 = ORIENTED_EDGE ( 'NONE', *, *, #12, .F. ) ;
#74 = PRODUCT_DEFINITION ( 'UNKNOWN', '', #156, #3 ) ;
#75 = ADVANCED_FACE ( 'NONE', ( #15 ), #114, .T. ) ;
#76 = LOCAL_TIME ( 15, 5, 20.00000000000000000, #136 ) ;
#77 = VECTOR ( 'NONE', #120, 1000.000000000000000 ) ;
#78 = CARTESIAN_POINT ( 'NONE',  ( -6.250000000000000000, 0.0000000000000000000, 0.0000000000000000000 ) ) ;
#79 = DIRECTION ( 'NONE',  ( 0.0000000000000000000, 0.0000000000000000000, 1.000000000000000000 ) ) ;
#80 = PRODUCT_DEFINITION_SHAPE ( 'NONE', 'NONE',  #74 ) ;
#81 = DATE_TIME_ROLE ( 'creation_date' ) ;
#82 = LOCAL_TIME ( 15, 5, 20.00000000000000000, #174 ) ;
#83 = ORIENTED_EDGE ( 'NONE', *, *, #143, .F. ) ;
#84 = DIRECTION ( 'NONE',  ( 0.0000000000000000000, 0.0000000000000000000, 1.000000000000000000 ) ) ;
#85 = CARTESIAN_POINT ( 'NONE',  ( 0.0000000000000000000, 0.0000000000000000000, 0.0000000000000000000 ) ) ;
#86 = EDGE_LOOP ( 'NONE', ( #83, #52, #154, #152 ) ) ;
#87 = CC_DESIGN_PERSON_AND_ORGANIZATION_ASSIGNMENT ( #159, #167, ( #47 ) ) ;
#88 = PERSON_AND_ORGANIZATION ( #62, #92 ) ;
#89 = CC_DESIGN_DATE_AND_TIME_ASSIGNMENT ( #32, #11, ( #63 ) ) ;
#90 = ORIENTED_EDGE ( 'NONE', *, *, #12, .T. ) ;
#91 = PERSON_AND_ORGANIZATION ( #62, #92 ) ;
#92 = ORGANIZATION ( 'UNSPECIFIED', 'UNSPECIFIED', '' ) ;
#93 = DIRECTION ( 'NONE',  ( 0.0000000000000000000, 0.0000000000000000000, 1.000000000000000000 ) ) ;
#94 = DATE_AND_TIME ( #130, #76 ) ;
#95 = FACE_OUTER_BOUND ( 'NONE', #157, .T. ) ;
#96 = DIRECTION ( 'NONE',  ( 0.0000000000000000000, 0.0000000000000000000, 1.000000000000000000 ) ) ;
#97 = DIRECTION ( 'NONE',  ( 0.0000000000000000000, 0.0000000000000000000, 1.000000000000000000 ) ) ;
#98 = APPLICATION_PROTOCOL_DEFINITION ( 'international standard', 'config_control_design', 1994, #50 ) ;
#99 = APPROVAL_DATE_TIME ( #94, #168 ) ;
#100 = CARTESIAN_POINT ( 'NONE',  ( 0.0000000000000000000, 0.0000000000000000000, 2.000000000000000000 ) ) ;
#101 = APPROVAL_STATUS ( 'not_yet_approved' ) ;
#102 = CC_DESIGN_PERSON_AND_ORGANIZATION_ASSIGNMENT ( #88, #43, ( #63 ) ) ;
#103 = APPROVAL ( #6, 'UNSPECIFIED' ) ;
#104 = DIRECTION ( 'NONE',  ( 1.000000000000000000, 0.0000000000000000000, 0.0000000000000000000 ) ) ;
#105 = VERTEX_POINT ( 'NONE', #78 ) ;
#106 = DIRECTION ( 'NONE',  ( -0.0000000000000000000, -0.0000000000000000000, -1.000000000000000000 ) ) ;
#107 = CARTESIAN_POINT ( 'NONE',  ( 6.250000000000000000, 7.654042494670957600E-016, 2.000000000000000000 ) ) ;
#108 = CIRCLE ( 'NONE', #148, 6.250000000000000000 ) ;
#109 = AXIS2_PLACEMENT_3D ( 'NONE', #5, #79, #104 ) ;
#110 = DIRECTION ( 'NONE',  ( -1.000000000000000000, 0.0000000000000000000, 0.0000000000000000000 ) ) ;
#111 =( LENGTH_UNIT ( ) NAMED_UNIT ( * ) SI_UNIT ( .MILLI., .METRE. ) );
#112 = APPROVAL_ROLE ( '' ) ;
#113 = PERSON_AND_ORGANIZATION ( #62, #92 ) ;
#114 = CYLINDRICAL_SURFACE ( 'NONE', #23, 6.250000000000000000 ) ;
#115 = CLOSED_SHELL ( 'NONE', ( #75, #175, #155, #142 ) ) ;
#116 = LINE ( 'NONE', #121, #31 ) ;
#117 = EDGE_CURVE ( 'NONE', #105, #118, #138, .T. ) ;
#118 = VERTEX_POINT ( 'NONE', #55 ) ;
#119 = DIRECTION ( 'NONE',  ( 1.000000000000000000, 0.0000000000000000000, 0.0000000000000000000 ) ) ;
#120 = DIRECTION ( 'NONE',  ( -0.0000000000000000000, -0.0000000000000000000, -1.000000000000000000 ) ) ;
#121 = CARTESIAN_POINT ( 'NONE',  ( -6.250000000000000000, 0.0000000000000000000, 2.000000000000000000 ) ) ;
#122 =( NAMED_UNIT ( * ) PLANE_ANGLE_UNIT ( ) SI_UNIT ( $, .RADIAN. ) );
#123 = DATE_AND_TIME ( #170, #37 ) ;
#124 = CYLINDRICAL_SURFACE ( 'NONE', #162, 6.250000000000000000 ) ;
#125 = DIRECTION ( 'NONE',  ( 0.0000000000000000000, 0.0000000000000000000, 1.000000000000000000 ) ) ;
#126 = FACE_OUTER_BOUND ( 'NONE', #86, .T. ) ;
#127 = AXIS2_PLACEMENT_3D ( 'NONE', #44, #84, #166 ) ;
#128 = APPROVAL ( #101, 'UNSPECIFIED' ) ;
#129 = AXIS2_PLACEMENT_3D ( 'NONE', #85, #125, #164 ) ;
#130 = CALENDAR_DATE ( 2017, 31, 1 ) ;
#131 = CARTESIAN_POINT ( 'NONE',  ( -6.250000000000000000, 0.0000000000000000000, 2.000000000000000000 ) ) ;
#132 = PERSON_AND_ORGANIZATION ( #62, #92 ) ;
#133 = ORIENTED_EDGE ( 'NONE', *, *, #134, .F. ) ;
#134 = EDGE_CURVE ( 'NONE', #72, #105, #116, .T. ) ;
#135 = CC_DESIGN_SECURITY_CLASSIFICATION ( #63, ( #156 ) ) ;
#136 = COORDINATED_UNIVERSAL_TIME_OFFSET ( 5, 0, .BEHIND. ) ;
#137 = APPROVAL_PERSON_ORGANIZATION ( #14, #103, #8 ) ;
#138 = CIRCLE ( 'NONE', #4, 6.250000000000000000 ) ;
#139 = CC_DESIGN_APPROVAL ( #103, ( #74 ) ) ;
#140 = SECURITY_CLASSIFICATION_LEVEL ( 'unclassified' ) ;
#141 = APPROVAL_PERSON_ORGANIZATION ( #172, #168, #153 ) ;
#142 = ADVANCED_FACE ( 'NONE', ( #22 ), #160, .F. ) ;
#143 = EDGE_CURVE ( 'NONE', #144, #118, #33, .T. ) ;
#144 = VERTEX_POINT ( 'NONE', #107 ) ;
#145 = APPROVAL_DATE_TIME ( #158, #128 ) ;
#146 = DIRECTION ( 'NONE',  ( 0.0000000000000000000, 0.0000000000000000000, 1.000000000000000000 ) ) ;
#147 = CC_DESIGN_PERSON_AND_ORGANIZATION_ASSIGNMENT ( #132, #9, ( #74 ) ) ;
#148 = AXIS2_PLACEMENT_3D ( 'NONE', #35, #146, #36 ) ;
#149 = EDGE_LOOP ( 'NONE', ( #26, #54 ) ) ;
#150 =( NAMED_UNIT ( * ) SI_UNIT ( $, .STERADIAN. ) SOLID_ANGLE_UNIT ( ) );
#151 = DATE_AND_TIME ( #65, #82 ) ;
#152 = ORIENTED_EDGE ( 'NONE', *, *, #117, .T. ) ;
#153 = APPROVAL_ROLE ( '' ) ;
#154 = ORIENTED_EDGE ( 'NONE', *, *, #134, .T. ) ;
#155 = ADVANCED_FACE ( 'NONE', ( #95 ), #2, .T. ) ;
#156 = PRODUCT_DEFINITION_FORMATION_WITH_SPECIFIED_SOURCE ( 'ANY', '', #47, .NOT_KNOWN. ) ;
#157 = EDGE_LOOP ( 'NONE', ( #57, #90 ) ) ;
#158 = DATE_AND_TIME ( #30, #25 ) ;
#159 = PERSON_AND_ORGANIZATION ( #62, #92 ) ;
#160 = PLANE ( 'NONE',  #173 ) ;
#161 = SHAPE_DEFINITION_REPRESENTATION ( #80, #1 ) ;
#162 = AXIS2_PLACEMENT_3D ( 'NONE', #100, #169, #110 ) ;
#163 = PRODUCT_RELATED_PRODUCT_CATEGORY ( 'detail', '', ( #47 ) ) ;
#164 = DIRECTION ( 'NONE',  ( 1.000000000000000000, 0.0000000000000000000, 0.0000000000000000000 ) ) ;
#165 = CALENDAR_DATE ( 2017, 31, 1 ) ;
#166 = DIRECTION ( 'NONE',  ( 1.000000000000000000, 0.0000000000000000000, -0.0000000000000000000 ) ) ;
#167 = PERSON_AND_ORGANIZATION_ROLE ( 'design_owner' ) ;
#168 = APPROVAL ( #42, 'UNSPECIFIED' ) ;
#169 = DIRECTION ( 'NONE',  ( -0.0000000000000000000, -0.0000000000000000000, -1.000000000000000000 ) ) ;
#170 = CALENDAR_DATE ( 2017, 31, 1 ) ;
#171 = EDGE_LOOP ( 'NONE', ( #73, #10, #13, #133 ) ) ;
#172 = PERSON_AND_ORGANIZATION ( #62, #92 ) ;
#173 = AXIS2_PLACEMENT_3D ( 'NONE', #56, #97, #48 ) ;
#174 = COORDINATED_UNIVERSAL_TIME_OFFSET ( 5, 0, .BEHIND. ) ;
#175 = ADVANCED_FACE ( 'NONE', ( #126 ), #124, .T. ) ;
ENDSEC;
END-ISO-10303-21;
