ISO-10303-21;
HEADER;
FILE_DESCRIPTION (( 'STEP AP203' ),
    '1' );
FILE_NAME ('Web Model 65891.STEP',
    '2017-01-31T19:30:38',
    ( '' ),
    ( '' ),
    'SwSTEP 2.0',
    'SolidWorks 2016',
    '' );
FILE_SCHEMA (( 'CONFIG_CONTROL_DESIGN' ));
ENDSEC;

DATA;
#1 = APPROVAL_PERSON_ORGANIZATION ( #5, #4, #51 ) ;
#2 = APPROVAL_DATE_TIME ( #57, #113 ) ;
#3 = CC_DESIGN_APPROVAL ( #4, ( #70 ) ) ;
#4 = APPROVAL ( #174, 'UNSPECIFIED' ) ;
#5 = PERSON_AND_ORGANIZATION ( #93, #128 ) ;
#6 = ORIENTED_EDGE ( 'NONE', *, *, #17, .F. ) ;
#7 = DIRECTION ( 'NONE',  ( 1.000000000000000000, 0.0000000000000000000, 0.0000000000000000000 ) ) ;
#8 = CC_DESIGN_APPROVAL ( #49, ( #31 ) ) ;
#9 = CARTESIAN_POINT ( 'NONE',  ( 0.0000000000000000000, 0.0000000000000000000, 1.600000000000000100 ) ) ;
#10 = FACE_OUTER_BOUND ( 'NONE', #14, .T. ) ;
#11 = PERSON_AND_ORGANIZATION_ROLE ( 'creator' ) ;
#12 = UNCERTAINTY_MEASURE_WITH_UNIT (LENGTH_MEASURE( 1.000000000000000100E-005 ), #83, 'distance_accuracy_value', 'NONE');
#13 = CALENDAR_DATE ( 2017, 31, 1 ) ;
#14 = EDGE_LOOP ( 'NONE', ( #58, #54, #19, #133 ) ) ;
#15 = CC_DESIGN_APPROVAL ( #113, ( #33 ) ) ;
#16 = ORIENTED_EDGE ( 'NONE', *, *, #68, .T. ) ;
#17 = EDGE_CURVE ( 'NONE', #140, #48, #159, .T. ) ;
#18 = FACE_OUTER_BOUND ( 'NONE', #59, .T. ) ;
#19 = ORIENTED_EDGE ( 'NONE', *, *, #55, .T. ) ;
#20 = CARTESIAN_POINT ( 'NONE',  ( 0.0000000000000000000, 0.0000000000000000000, 1.600000000000000100 ) ) ;
#21 = APPLICATION_CONTEXT ( 'configuration controlled 3d designs of mechanical parts and assemblies' ) ;
#22 = CIRCLE ( 'NONE', #27, 3.000000000000000400 ) ;
#23 = MECHANICAL_CONTEXT ( 'NONE', #21, 'mechanical' ) ;
#24 = SECURITY_CLASSIFICATION_LEVEL ( 'unclassified' ) ;
#25 = FACE_OUTER_BOUND ( 'NONE', #103, .T. ) ;
#26 = ADVANCED_FACE ( 'NONE', ( #101 ), #98, .T. ) ;
#27 = AXIS2_PLACEMENT_3D ( 'NONE', #77, #170, #123 ) ;
#28 = ADVANCED_FACE ( 'NONE', ( #10 ), #40, .T. ) ;
#29 = CC_DESIGN_SECURITY_CLASSIFICATION ( #33, ( #70 ) ) ;
#30 = LOCAL_TIME ( 14, 30, 38.00000000000000000, #64 ) ;
#31 = PRODUCT_DEFINITION ( 'UNKNOWN', '', #70, #67 ) ;
#32 = DATE_AND_TIME ( #43, #34 ) ;
#33 = SECURITY_CLASSIFICATION ( '', '', #24 ) ;
#34 = LOCAL_TIME ( 14, 30, 38.00000000000000000, #111 ) ;
#35 = ORIENTED_EDGE ( 'NONE', *, *, #71, .T. ) ;
#36 = DIRECTION ( 'NONE',  ( 1.000000000000000000, 0.0000000000000000000, -0.0000000000000000000 ) ) ;
#37 = APPROVAL_STATUS ( 'not_yet_approved' ) ;
#38 = PERSON_AND_ORGANIZATION_ROLE ( 'classification_officer' ) ;
#39 = PERSON_AND_ORGANIZATION ( #93, #128 ) ;
#40 = CYLINDRICAL_SURFACE ( 'NONE', #142, 3.000000000000000400 ) ;
#41 = ADVANCED_BREP_SHAPE_REPRESENTATION ( 'Web Model 65891', ( #126, #74 ), #127 ) ;
#42 = CC_DESIGN_DATE_AND_TIME_ASSIGNMENT ( #153, #66, ( #33 ) ) ;
#43 = CALENDAR_DATE ( 2017, 31, 1 ) ;
#44 = DIRECTION ( 'NONE',  ( -0.0000000000000000000, -0.0000000000000000000, -1.000000000000000000 ) ) ;
#45 = VERTEX_POINT ( 'NONE', #60 ) ;
#46 = CARTESIAN_POINT ( 'NONE',  ( 0.0000000000000000000, 0.0000000000000000000, 1.600000000000000100 ) ) ;
#47 = PERSON_AND_ORGANIZATION ( #93, #128 ) ;
#48 = VERTEX_POINT ( 'NONE', #121 ) ;
#49 = APPROVAL ( #37, 'UNSPECIFIED' ) ;
#50 = APPLICATION_PROTOCOL_DEFINITION ( 'international standard', 'config_control_design', 1994, #21 ) ;
#51 = APPROVAL_ROLE ( '' ) ;
#52 = CARTESIAN_POINT ( 'NONE',  ( -3.000000000000000400, 0.0000000000000000000, 0.0000000000000000000 ) ) ;
#53 = CARTESIAN_POINT ( 'NONE',  ( 3.000000000000000400, 3.673940397442060400E-016, 1.600000000000000100 ) ) ;
#54 = ORIENTED_EDGE ( 'NONE', *, *, #17, .T. ) ;
#55 = EDGE_CURVE ( 'NONE', #48, #79, #62, .T. ) ;
#56 = CIRCLE ( 'NONE', #114, 3.000000000000000400 ) ;
#57 = DATE_AND_TIME ( #147, #171 ) ;
#58 = ORIENTED_EDGE ( 'NONE', *, *, #108, .F. ) ;
#59 = EDGE_LOOP ( 'NONE', ( #105, #154 ) ) ;
#60 = CARTESIAN_POINT ( 'NONE',  ( -3.000000000000000400, 0.0000000000000000000, 1.600000000000000100 ) ) ;
#61 = DIRECTION ( 'NONE',  ( 0.0000000000000000000, 0.0000000000000000000, 1.000000000000000000 ) ) ;
#62 = CIRCLE ( 'NONE', #112, 3.000000000000000400 ) ;
#63 = CARTESIAN_POINT ( 'NONE',  ( 0.0000000000000000000, 0.0000000000000000000, 1.600000000000000100 ) ) ;
#64 = COORDINATED_UNIVERSAL_TIME_OFFSET ( 5, 0, .BEHIND. ) ;
#65 = AXIS2_PLACEMENT_3D ( 'NONE', #63, #172, #80 ) ;
#66 = DATE_TIME_ROLE ( 'classification_date' ) ;
#67 = DESIGN_CONTEXT ( 'detailed design', #158, 'design' ) ;
#68 = EDGE_CURVE ( 'NONE', #79, #48, #22, .T. ) ;
#69 = APPROVAL_PERSON_ORGANIZATION ( #102, #113, #86 ) ;
#70 = PRODUCT_DEFINITION_FORMATION_WITH_SPECIFIED_SOURCE ( 'ANY', '', #164, .NOT_KNOWN. ) ;
#71 = EDGE_CURVE ( 'NONE', #45, #79, #130, .T. ) ;
#72 = APPROVAL_PERSON_ORGANIZATION ( #138, #49, #146 ) ;
#73 = ADVANCED_FACE ( 'NONE', ( #25 ), #97, .T. ) ;
#74 = AXIS2_PLACEMENT_3D ( 'NONE', #148, #99, #85 ) ;
#75 = APPROVAL_DATE_TIME ( #137, #49 ) ;
#76 = AXIS2_PLACEMENT_3D ( 'NONE', #160, #125, #173 ) ;
#77 = CARTESIAN_POINT ( 'NONE',  ( 0.0000000000000000000, 0.0000000000000000000, 0.0000000000000000000 ) ) ;
#78 = PERSON_AND_ORGANIZATION ( #93, #128 ) ;
#79 = VERTEX_POINT ( 'NONE', #52 ) ;
#80 = DIRECTION ( 'NONE',  ( 1.000000000000000000, 0.0000000000000000000, 0.0000000000000000000 ) ) ;
#81 = CC_DESIGN_PERSON_AND_ORGANIZATION_ASSIGNMENT ( #95, #145, ( #164 ) ) ;
#82 = DATE_TIME_ROLE ( 'creation_date' ) ;
#83 =( LENGTH_UNIT ( ) NAMED_UNIT ( * ) SI_UNIT ( .MILLI., .METRE. ) );
#84 = LOCAL_TIME ( 14, 30, 38.00000000000000000, #132 ) ;
#85 = DIRECTION ( 'NONE',  ( 1.000000000000000000, 0.0000000000000000000, 0.0000000000000000000 ) ) ;
#86 = APPROVAL_ROLE ( '' ) ;
#87 = COORDINATED_UNIVERSAL_TIME_OFFSET ( 5, 0, .BEHIND. ) ;
#88 = ORIENTED_EDGE ( 'NONE', *, *, #109, .F. ) ;
#89 = CC_DESIGN_PERSON_AND_ORGANIZATION_ASSIGNMENT ( #78, #11, ( #70 ) ) ;
#90 = EDGE_LOOP ( 'NONE', ( #6, #88, #35, #16 ) ) ;
#91 = AXIS2_PLACEMENT_3D ( 'NONE', #20, #141, #119 ) ;
#92 = CALENDAR_DATE ( 2017, 31, 1 ) ;
#93 = PERSON ( 'UNSPECIFIED', 'UNSPECIFIED', 'UNSPECIFIED', ('UNSPECIFIED'), ('UNSPECIFIED'), ('UNSPECIFIED') ) ;
#94 = DIRECTION ( 'NONE',  ( -1.000000000000000000, 0.0000000000000000000, 0.0000000000000000000 ) ) ;
#95 = PERSON_AND_ORGANIZATION ( #93, #128 ) ;
#96 =( NAMED_UNIT ( * ) PLANE_ANGLE_UNIT ( ) SI_UNIT ( $, .RADIAN. ) );
#97 = PLANE ( 'NONE',  #161 ) ;
#98 = CYLINDRICAL_SURFACE ( 'NONE', #91, 3.000000000000000400 ) ;
#99 = DIRECTION ( 'NONE',  ( 0.0000000000000000000, 0.0000000000000000000, 1.000000000000000000 ) ) ;
#100 = CARTESIAN_POINT ( 'NONE',  ( 0.0000000000000000000, 0.0000000000000000000, 1.600000000000000100 ) ) ;
#101 = FACE_OUTER_BOUND ( 'NONE', #90, .T. ) ;
#102 = PERSON_AND_ORGANIZATION ( #93, #128 ) ;
#103 = EDGE_LOOP ( 'NONE', ( #104, #150 ) ) ;
#104 = ORIENTED_EDGE ( 'NONE', *, *, #109, .T. ) ;
#105 = ORIENTED_EDGE ( 'NONE', *, *, #68, .F. ) ;
#106 =( NAMED_UNIT ( * ) SI_UNIT ( $, .STERADIAN. ) SOLID_ANGLE_UNIT ( ) );
#107 = PLANE ( 'NONE',  #76 ) ;
#108 = EDGE_CURVE ( 'NONE', #140, #45, #56, .T. ) ;
#109 = EDGE_CURVE ( 'NONE', #45, #140, #163, .T. ) ;
#110 = PERSON_AND_ORGANIZATION_ROLE ( 'design_supplier' ) ;
#111 = COORDINATED_UNIVERSAL_TIME_OFFSET ( 5, 0, .BEHIND. ) ;
#112 = AXIS2_PLACEMENT_3D ( 'NONE', #143, #61, #156 ) ;
#113 = APPROVAL ( #162, 'UNSPECIFIED' ) ;
#114 = AXIS2_PLACEMENT_3D ( 'NONE', #100, #131, #7 ) ;
#115 = DATE_AND_TIME ( #13, #84 ) ;
#116 = PRODUCT_DEFINITION_SHAPE ( 'NONE', 'NONE',  #31 ) ;
#117 = SHAPE_DEFINITION_REPRESENTATION ( #116, #41 ) ;
#118 = DIRECTION ( 'NONE',  ( -0.0000000000000000000, -0.0000000000000000000, -1.000000000000000000 ) ) ;
#119 = DIRECTION ( 'NONE',  ( -1.000000000000000000, 0.0000000000000000000, 0.0000000000000000000 ) ) ;
#120 = CARTESIAN_POINT ( 'NONE',  ( 3.000000000000000400, 3.673940397442060400E-016, 1.600000000000000100 ) ) ;
#121 = CARTESIAN_POINT ( 'NONE',  ( 3.000000000000000400, 3.673940397442060400E-016, 0.0000000000000000000 ) ) ;
#122 = PERSON_AND_ORGANIZATION ( #93, #128 ) ;
#123 = DIRECTION ( 'NONE',  ( 1.000000000000000000, 0.0000000000000000000, 0.0000000000000000000 ) ) ;
#124 = PERSON_AND_ORGANIZATION_ROLE ( 'creator' ) ;
#125 = DIRECTION ( 'NONE',  ( 0.0000000000000000000, 0.0000000000000000000, 1.000000000000000000 ) ) ;
#126 = MANIFOLD_SOLID_BREP ( 'Extrude1', #165 ) ;
#127 =( GEOMETRIC_REPRESENTATION_CONTEXT ( 3 ) GLOBAL_UNCERTAINTY_ASSIGNED_CONTEXT ( ( #12 ) ) GLOBAL_UNIT_ASSIGNED_CONTEXT ( ( #83, #96, #106 ) ) REPRESENTATION_CONTEXT ( 'NONE', 'WORKASPACE' ) );
#128 = ORGANIZATION ( 'UNSPECIFIED', 'UNSPECIFIED', '' ) ;
#129 = CC_DESIGN_PERSON_AND_ORGANIZATION_ASSIGNMENT ( #39, #110, ( #70 ) ) ;
#130 = LINE ( 'NONE', #169, #157 ) ;
#131 = DIRECTION ( 'NONE',  ( 0.0000000000000000000, 0.0000000000000000000, 1.000000000000000000 ) ) ;
#132 = COORDINATED_UNIVERSAL_TIME_OFFSET ( 5, 0, .BEHIND. ) ;
#133 = ORIENTED_EDGE ( 'NONE', *, *, #71, .F. ) ;
#134 = CC_DESIGN_PERSON_AND_ORGANIZATION_ASSIGNMENT ( #47, #124, ( #31 ) ) ;
#135 = DIRECTION ( 'NONE',  ( 0.0000000000000000000, 0.0000000000000000000, 1.000000000000000000 ) ) ;
#136 = PRODUCT_RELATED_PRODUCT_CATEGORY ( 'detail', '', ( #164 ) ) ;
#137 = DATE_AND_TIME ( #92, #30 ) ;
#138 = PERSON_AND_ORGANIZATION ( #93, #128 ) ;
#139 = CC_DESIGN_DATE_AND_TIME_ASSIGNMENT ( #32, #82, ( #31 ) ) ;
#140 = VERTEX_POINT ( 'NONE', #53 ) ;
#141 = DIRECTION ( 'NONE',  ( -0.0000000000000000000, -0.0000000000000000000, -1.000000000000000000 ) ) ;
#142 = AXIS2_PLACEMENT_3D ( 'NONE', #46, #155, #94 ) ;
#143 = CARTESIAN_POINT ( 'NONE',  ( 0.0000000000000000000, 0.0000000000000000000, 0.0000000000000000000 ) ) ;
#144 = APPLICATION_PROTOCOL_DEFINITION ( 'international standard', 'config_control_design', 1994, #158 ) ;
#145 = PERSON_AND_ORGANIZATION_ROLE ( 'design_owner' ) ;
#146 = APPROVAL_ROLE ( '' ) ;
#147 = CALENDAR_DATE ( 2017, 31, 1 ) ;
#148 = CARTESIAN_POINT ( 'NONE',  ( 0.0000000000000000000, 0.0000000000000000000, 0.0000000000000000000 ) ) ;
#149 = APPROVAL_DATE_TIME ( #115, #4 ) ;
#150 = ORIENTED_EDGE ( 'NONE', *, *, #108, .T. ) ;
#151 = ADVANCED_FACE ( 'NONE', ( #18 ), #107, .F. ) ;
#152 = VECTOR ( 'NONE', #44, 1000.000000000000000 ) ;
#153 = DATE_AND_TIME ( #168, #175 ) ;
#154 = ORIENTED_EDGE ( 'NONE', *, *, #55, .F. ) ;
#155 = DIRECTION ( 'NONE',  ( -0.0000000000000000000, -0.0000000000000000000, -1.000000000000000000 ) ) ;
#156 = DIRECTION ( 'NONE',  ( 1.000000000000000000, 0.0000000000000000000, 0.0000000000000000000 ) ) ;
#157 = VECTOR ( 'NONE', #118, 1000.000000000000000 ) ;
#158 = APPLICATION_CONTEXT ( 'configuration controlled 3d designs of mechanical parts and assemblies' ) ;
#159 = LINE ( 'NONE', #120, #152 ) ;
#160 = CARTESIAN_POINT ( 'NONE',  ( 0.0000000000000000000, 0.0000000000000000000, 0.0000000000000000000 ) ) ;
#161 = AXIS2_PLACEMENT_3D ( 'NONE', #9, #135, #36 ) ;
#162 = APPROVAL_STATUS ( 'not_yet_approved' ) ;
#163 = CIRCLE ( 'NONE', #65, 3.000000000000000400 ) ;
#164 = PRODUCT ( 'Web Model 65891', 'Web Model 65891', '', ( #23 ) ) ;
#165 = CLOSED_SHELL ( 'NONE', ( #28, #26, #73, #151 ) ) ;
#166 = CC_DESIGN_PERSON_AND_ORGANIZATION_ASSIGNMENT ( #122, #38, ( #33 ) ) ;
#167 = COORDINATED_UNIVERSAL_TIME_OFFSET ( 5, 0, .BEHIND. ) ;
#168 = CALENDAR_DATE ( 2017, 31, 1 ) ;
#169 = CARTESIAN_POINT ( 'NONE',  ( -3.000000000000000400, 0.0000000000000000000, 1.600000000000000100 ) ) ;
#170 = DIRECTION ( 'NONE',  ( 0.0000000000000000000, 0.0000000000000000000, 1.000000000000000000 ) ) ;
#171 = LOCAL_TIME ( 14, 30, 38.00000000000000000, #167 ) ;
#172 = DIRECTION ( 'NONE',  ( 0.0000000000000000000, 0.0000000000000000000, 1.000000000000000000 ) ) ;
#173 = DIRECTION ( 'NONE',  ( 1.000000000000000000, 0.0000000000000000000, -0.0000000000000000000 ) ) ;
#174 = APPROVAL_STATUS ( 'not_yet_approved' ) ;
#175 = LOCAL_TIME ( 14, 30, 38.00000000000000000, #87 ) ;
ENDSEC;
END-ISO-10303-21;
