ISO-10303-21;
HEADER;
FILE_DESCRIPTION (( 'STEP AP203' ),
    '1' );
FILE_NAME ('Web Model 45464_45464.step',
    '2019-01-07T15:37:26',
    ( '' ),
    ( '' ),
    'SwSTEP 2.0',
    'SolidWorks 2016',
    '' );
FILE_SCHEMA (( 'CONFIG_CONTROL_DESIGN' ));
ENDSEC;

DATA;
#1 = AXIS2_PLACEMENT_3D ( 'NONE', #108, #126, #83 ) ;
#2 = CARTESIAN_POINT ( 'NONE',  ( -10.00000000000000000, 0.0000000000000000000, -1.000000000000000000 ) ) ;
#3 = APPLICATION_PROTOCOL_DEFINITION ( 'international standard', 'config_control_design', 1994, #163 ) ;
#4 = DIRECTION ( 'NONE',  ( 1.000000000000000000, 0.0000000000000000000, -0.0000000000000000000 ) ) ;
#5 = PRODUCT_DEFINITION_SHAPE ( 'NONE', 'NONE',  #36 ) ;
#6 = DIRECTION ( 'NONE',  ( -0.0000000000000000000, -0.0000000000000000000, -1.000000000000000000 ) ) ;
#7 = LOCAL_TIME ( 10, 37, 26.00000000000000000, #102 ) ;
#8 = CC_DESIGN_DATE_AND_TIME_ASSIGNMENT ( #60, #20, ( #129 ) ) ;
#9 = PERSON_AND_ORGANIZATION_ROLE ( 'design_supplier' ) ;
#10 = EDGE_CURVE ( 'NONE', #11, #40, #104, .T. ) ;
#11 = VERTEX_POINT ( 'NONE', #96 ) ;
#12 = CIRCLE ( 'NONE', #105, 10.00000000000000000 ) ;
#13 = PERSON ( 'UNSPECIFIED', 'UNSPECIFIED', 'UNSPECIFIED', ('UNSPECIFIED'), ('UNSPECIFIED'), ('UNSPECIFIED') ) ;
#14 = FACE_OUTER_BOUND ( 'NONE', #76, .T. ) ;
#15 = ORIENTED_EDGE ( 'NONE', *, *, #71, .T. ) ;
#16 = CARTESIAN_POINT ( 'NONE',  ( 10.00000000000000000, 1.224646799147353300E-015, 1.000000000000000000 ) ) ;
#17 = CARTESIAN_POINT ( 'NONE',  ( 10.00000000000000000, 1.224646799147353300E-015, -1.000000000000000000 ) ) ;
#18 = DIRECTION ( 'NONE',  ( -0.0000000000000000000, -0.0000000000000000000, -1.000000000000000000 ) ) ;
#19 = CALENDAR_DATE ( 2019, 7, 1 ) ;
#20 = DATE_TIME_ROLE ( 'classification_date' ) ;
#21 = ORIENTED_EDGE ( 'NONE', *, *, #168, .F. ) ;
#22 = APPROVAL ( #100, 'UNSPECIFIED' ) ;
#23 = APPROVAL_ROLE ( '' ) ;
#24 = ADVANCED_FACE ( 'NONE', ( #27 ), #93, .T. ) ;
#25 = COORDINATED_UNIVERSAL_TIME_OFFSET ( 5, 0, .BEHIND. ) ;
#26 = UNCERTAINTY_MEASURE_WITH_UNIT (LENGTH_MEASURE( 1.000000000000000100E-005 ), #149, 'distance_accuracy_value', 'NONE');
#27 = FACE_OUTER_BOUND ( 'NONE', #66, .T. ) ;
#28 = CALENDAR_DATE ( 2019, 7, 1 ) ;
#29 = CARTESIAN_POINT ( 'NONE',  ( -10.00000000000000000, 0.0000000000000000000, 1.000000000000000000 ) ) ;
#30 = CARTESIAN_POINT ( 'NONE',  ( 0.0000000000000000000, 0.0000000000000000000, -1.000000000000000000 ) ) ;
#31 = ORGANIZATION ( 'UNSPECIFIED', 'UNSPECIFIED', '' ) ;
#32 = DIRECTION ( 'NONE',  ( 0.0000000000000000000, 0.0000000000000000000, 1.000000000000000000 ) ) ;
#33 = DIRECTION ( 'NONE',  ( 0.0000000000000000000, 0.0000000000000000000, 1.000000000000000000 ) ) ;
#34 = DIRECTION ( 'NONE',  ( 0.0000000000000000000, 0.0000000000000000000, 1.000000000000000000 ) ) ;
#35 = APPROVAL_ROLE ( '' ) ;
#36 = PRODUCT_DEFINITION ( 'UNKNOWN', '', #45, #130 ) ;
#37 = CIRCLE ( 'NONE', #127, 10.00000000000000000 ) ;
#38 = PERSON_AND_ORGANIZATION_ROLE ( 'classification_officer' ) ;
#39 = COORDINATED_UNIVERSAL_TIME_OFFSET ( 5, 0, .BEHIND. ) ;
#40 = VERTEX_POINT ( 'NONE', #17 ) ;
#41 = APPROVAL ( #169, 'UNSPECIFIED' ) ;
#42 = VECTOR ( 'NONE', #164, 1000.000000000000000 ) ;
#43 =( NAMED_UNIT ( * ) SI_UNIT ( $, .STERADIAN. ) SOLID_ANGLE_UNIT ( ) );
#44 = PLANE ( 'NONE',  #63 ) ;
#45 = PRODUCT_DEFINITION_FORMATION_WITH_SPECIFIED_SOURCE ( 'ANY', '', #64, .NOT_KNOWN. ) ;
#46 = CARTESIAN_POINT ( 'NONE',  ( 0.0000000000000000000, 0.0000000000000000000, 1.000000000000000000 ) ) ;
#47 = DIRECTION ( 'NONE',  ( 0.0000000000000000000, 0.0000000000000000000, 1.000000000000000000 ) ) ;
#48 = APPROVAL_PERSON_ORGANIZATION ( #91, #41, #59 ) ;
#49 = CARTESIAN_POINT ( 'NONE',  ( 0.0000000000000000000, 0.0000000000000000000, -1.000000000000000000 ) ) ;
#50 = APPROVAL ( #165, 'UNSPECIFIED' ) ;
#51 = ORIENTED_EDGE ( 'NONE', *, *, #10, .F. ) ;
#52 = ADVANCED_BREP_SHAPE_REPRESENTATION ( 'Web Model 45464_45464', ( #106, #54 ), #72 ) ;
#53 = LINE ( 'NONE', #151, #109 ) ;
#54 = AXIS2_PLACEMENT_3D ( 'NONE', #65, #82, #98 ) ;
#55 = CALENDAR_DATE ( 2019, 7, 1 ) ;
#56 = CC_DESIGN_PERSON_AND_ORGANIZATION_ASSIGNMENT ( #62, #9, ( #45 ) ) ;
#57 = AXIS2_PLACEMENT_3D ( 'NONE', #110, #32, #112 ) ;
#58 = CIRCLE ( 'NONE', #79, 10.00000000000000000 ) ;
#59 = APPROVAL_ROLE ( '' ) ;
#60 = DATE_AND_TIME ( #19, #172 ) ;
#61 = EDGE_LOOP ( 'NONE', ( #51, #21, #113, #95 ) ) ;
#62 = PERSON_AND_ORGANIZATION ( #13, #31 ) ;
#63 = AXIS2_PLACEMENT_3D ( 'NONE', #122, #33, #4 ) ;
#64 = PRODUCT ( 'Web Model 45464_45464', 'Web Model 45464_45464', '', ( #74 ) ) ;
#65 = CARTESIAN_POINT ( 'NONE',  ( 0.0000000000000000000, 0.0000000000000000000, 0.0000000000000000000 ) ) ;
#66 = EDGE_LOOP ( 'NONE', ( #148, #81, #173, #152 ) ) ;
#67 = PLANE ( 'NONE',  #1 ) ;
#68 = CYLINDRICAL_SURFACE ( 'NONE', #170, 10.00000000000000000 ) ;
#69 = DATE_AND_TIME ( #120, #90 ) ;
#70 =( NAMED_UNIT ( * ) PLANE_ANGLE_UNIT ( ) SI_UNIT ( $, .RADIAN. ) );
#71 = EDGE_CURVE ( 'NONE', #11, #89, #134, .T. ) ;
#72 =( GEOMETRIC_REPRESENTATION_CONTEXT ( 3 ) GLOBAL_UNCERTAINTY_ASSIGNED_CONTEXT ( ( #26 ) ) GLOBAL_UNIT_ASSIGNED_CONTEXT ( ( #149, #70, #43 ) ) REPRESENTATION_CONTEXT ( 'NONE', 'WORKASPACE' ) );
#73 = ORIENTED_EDGE ( 'NONE', *, *, #159, .F. ) ;
#74 = MECHANICAL_CONTEXT ( 'NONE', #163, 'mechanical' ) ;
#75 = ADVANCED_FACE ( 'NONE', ( #14 ), #67, .T. ) ;
#76 = EDGE_LOOP ( 'NONE', ( #107, #15 ) ) ;
#77 = PERSON_AND_ORGANIZATION ( #13, #31 ) ;
#78 = PERSON_AND_ORGANIZATION ( #13, #31 ) ;
#79 = AXIS2_PLACEMENT_3D ( 'NONE', #49, #137, #153 ) ;
#80 = AXIS2_PLACEMENT_3D ( 'NONE', #97, #18, #175 ) ;
#81 = ORIENTED_EDGE ( 'NONE', *, *, #10, .T. ) ;
#82 = DIRECTION ( 'NONE',  ( 0.0000000000000000000, 0.0000000000000000000, 1.000000000000000000 ) ) ;
#83 = DIRECTION ( 'NONE',  ( 1.000000000000000000, 0.0000000000000000000, -0.0000000000000000000 ) ) ;
#84 = LOCAL_TIME ( 10, 37, 26.00000000000000000, #25 ) ;
#85 = DIRECTION ( 'NONE',  ( 1.000000000000000000, 0.0000000000000000000, 0.0000000000000000000 ) ) ;
#86 = SECURITY_CLASSIFICATION_LEVEL ( 'unclassified' ) ;
#87 = DATE_AND_TIME ( #55, #115 ) ;
#88 = APPLICATION_CONTEXT ( 'configuration controlled 3d designs of mechanical parts and assemblies' ) ;
#89 = VERTEX_POINT ( 'NONE', #29 ) ;
#90 = LOCAL_TIME ( 10, 37, 26.00000000000000000, #160 ) ;
#91 = PERSON_AND_ORGANIZATION ( #13, #31 ) ;
#92 = CC_DESIGN_PERSON_AND_ORGANIZATION_ASSIGNMENT ( #77, #154, ( #45 ) ) ;
#93 = CYLINDRICAL_SURFACE ( 'NONE', #80, 10.00000000000000000 ) ;
#94 = EDGE_CURVE ( 'NONE', #89, #117, #53, .T. ) ;
#95 = ORIENTED_EDGE ( 'NONE', *, *, #159, .T. ) ;
#96 = CARTESIAN_POINT ( 'NONE',  ( 10.00000000000000000, 1.224646799147353300E-015, 1.000000000000000000 ) ) ;
#97 = CARTESIAN_POINT ( 'NONE',  ( 0.0000000000000000000, 0.0000000000000000000, 1.000000000000000000 ) ) ;
#98 = DIRECTION ( 'NONE',  ( 1.000000000000000000, 0.0000000000000000000, 0.0000000000000000000 ) ) ;
#99 = CC_DESIGN_PERSON_AND_ORGANIZATION_ASSIGNMENT ( #78, #138, ( #36 ) ) ;
#100 = APPROVAL_STATUS ( 'not_yet_approved' ) ;
#101 = ORIENTED_EDGE ( 'NONE', *, *, #147, .F. ) ;
#102 = COORDINATED_UNIVERSAL_TIME_OFFSET ( 5, 0, .BEHIND. ) ;
#103 = CC_DESIGN_APPROVAL ( #41, ( #45 ) ) ;
#104 = LINE ( 'NONE', #16, #42 ) ;
#105 = AXIS2_PLACEMENT_3D ( 'NONE', #46, #34, #150 ) ;
#106 = MANIFOLD_SOLID_BREP ( 'Boss-Extrude1', #171 ) ;
#107 = ORIENTED_EDGE ( 'NONE', *, *, #168, .T. ) ;
#108 = CARTESIAN_POINT ( 'NONE',  ( 0.0000000000000000000, 0.0000000000000000000, 1.000000000000000000 ) ) ;
#109 = VECTOR ( 'NONE', #136, 1000.000000000000000 ) ;
#110 = CARTESIAN_POINT ( 'NONE',  ( 0.0000000000000000000, 0.0000000000000000000, 1.000000000000000000 ) ) ;
#111 = CARTESIAN_POINT ( 'NONE',  ( 0.0000000000000000000, 0.0000000000000000000, 1.000000000000000000 ) ) ;
#112 = DIRECTION ( 'NONE',  ( 1.000000000000000000, 0.0000000000000000000, 0.0000000000000000000 ) ) ;
#113 = ORIENTED_EDGE ( 'NONE', *, *, #94, .T. ) ;
#114 = APPROVAL_DATE_TIME ( #121, #41 ) ;
#115 = LOCAL_TIME ( 10, 37, 26.00000000000000000, #128 ) ;
#116 = CC_DESIGN_SECURITY_CLASSIFICATION ( #129, ( #45 ) ) ;
#117 = VERTEX_POINT ( 'NONE', #2 ) ;
#118 = CC_DESIGN_DATE_AND_TIME_ASSIGNMENT ( #157, #139, ( #36 ) ) ;
#119 = FACE_OUTER_BOUND ( 'NONE', #61, .T. ) ;
#120 = CALENDAR_DATE ( 2019, 7, 1 ) ;
#121 = DATE_AND_TIME ( #28, #84 ) ;
#122 = CARTESIAN_POINT ( 'NONE',  ( 0.0000000000000000000, 0.0000000000000000000, -1.000000000000000000 ) ) ;
#123 = FACE_OUTER_BOUND ( 'NONE', #140, .T. ) ;
#124 = DIRECTION ( 'NONE',  ( -1.000000000000000000, 0.0000000000000000000, 0.0000000000000000000 ) ) ;
#125 = PRODUCT_RELATED_PRODUCT_CATEGORY ( 'detail', '', ( #64 ) ) ;
#126 = DIRECTION ( 'NONE',  ( 0.0000000000000000000, 0.0000000000000000000, 1.000000000000000000 ) ) ;
#127 = AXIS2_PLACEMENT_3D ( 'NONE', #30, #47, #85 ) ;
#128 = COORDINATED_UNIVERSAL_TIME_OFFSET ( 5, 0, .BEHIND. ) ;
#129 = SECURITY_CLASSIFICATION ( '', '', #86 ) ;
#130 = DESIGN_CONTEXT ( 'detailed design', #88, 'design' ) ;
#131 = PERSON_AND_ORGANIZATION ( #13, #31 ) ;
#132 = ADVANCED_FACE ( 'NONE', ( #123 ), #44, .F. ) ;
#133 = APPROVAL_PERSON_ORGANIZATION ( #158, #50, #35 ) ;
#134 = CIRCLE ( 'NONE', #57, 10.00000000000000000 ) ;
#135 = APPROVAL_DATE_TIME ( #87, #22 ) ;
#136 = DIRECTION ( 'NONE',  ( -0.0000000000000000000, -0.0000000000000000000, -1.000000000000000000 ) ) ;
#137 = DIRECTION ( 'NONE',  ( 0.0000000000000000000, 0.0000000000000000000, 1.000000000000000000 ) ) ;
#138 = PERSON_AND_ORGANIZATION_ROLE ( 'creator' ) ;
#139 = DATE_TIME_ROLE ( 'creation_date' ) ;
#140 = EDGE_LOOP ( 'NONE', ( #73, #101 ) ) ;
#141 = PERSON_AND_ORGANIZATION ( #13, #31 ) ;
#142 = ADVANCED_FACE ( 'NONE', ( #119 ), #68, .T. ) ;
#143 = PERSON_AND_ORGANIZATION ( #13, #31 ) ;
#144 = CC_DESIGN_PERSON_AND_ORGANIZATION_ASSIGNMENT ( #131, #167, ( #64 ) ) ;
#145 = APPROVAL_PERSON_ORGANIZATION ( #141, #22, #23 ) ;
#146 = SHAPE_DEFINITION_REPRESENTATION ( #5, #52 ) ;
#147 = EDGE_CURVE ( 'NONE', #40, #117, #58, .T. ) ;
#148 = ORIENTED_EDGE ( 'NONE', *, *, #71, .F. ) ;
#149 =( LENGTH_UNIT ( ) NAMED_UNIT ( * ) SI_UNIT ( .MILLI., .METRE. ) );
#150 = DIRECTION ( 'NONE',  ( 1.000000000000000000, 0.0000000000000000000, 0.0000000000000000000 ) ) ;
#151 = CARTESIAN_POINT ( 'NONE',  ( -10.00000000000000000, 0.0000000000000000000, 1.000000000000000000 ) ) ;
#152 = ORIENTED_EDGE ( 'NONE', *, *, #94, .F. ) ;
#153 = DIRECTION ( 'NONE',  ( 1.000000000000000000, 0.0000000000000000000, 0.0000000000000000000 ) ) ;
#154 = PERSON_AND_ORGANIZATION_ROLE ( 'creator' ) ;
#155 = APPLICATION_PROTOCOL_DEFINITION ( 'international standard', 'config_control_design', 1994, #88 ) ;
#156 = APPROVAL_DATE_TIME ( #69, #50 ) ;
#157 = DATE_AND_TIME ( #166, #7 ) ;
#158 = PERSON_AND_ORGANIZATION ( #13, #31 ) ;
#159 = EDGE_CURVE ( 'NONE', #117, #40, #37, .T. ) ;
#160 = COORDINATED_UNIVERSAL_TIME_OFFSET ( 5, 0, .BEHIND. ) ;
#161 = CC_DESIGN_APPROVAL ( #22, ( #36 ) ) ;
#162 = CC_DESIGN_PERSON_AND_ORGANIZATION_ASSIGNMENT ( #143, #38, ( #129 ) ) ;
#163 = APPLICATION_CONTEXT ( 'configuration controlled 3d designs of mechanical parts and assemblies' ) ;
#164 = DIRECTION ( 'NONE',  ( -0.0000000000000000000, -0.0000000000000000000, -1.000000000000000000 ) ) ;
#165 = APPROVAL_STATUS ( 'not_yet_approved' ) ;
#166 = CALENDAR_DATE ( 2019, 7, 1 ) ;
#167 = PERSON_AND_ORGANIZATION_ROLE ( 'design_owner' ) ;
#168 = EDGE_CURVE ( 'NONE', #89, #11, #12, .T. ) ;
#169 = APPROVAL_STATUS ( 'not_yet_approved' ) ;
#170 = AXIS2_PLACEMENT_3D ( 'NONE', #111, #6, #124 ) ;
#171 = CLOSED_SHELL ( 'NONE', ( #24, #142, #75, #132 ) ) ;
#172 = LOCAL_TIME ( 10, 37, 26.00000000000000000, #39 ) ;
#173 = ORIENTED_EDGE ( 'NONE', *, *, #147, .T. ) ;
#174 = CC_DESIGN_APPROVAL ( #50, ( #129 ) ) ;
#175 = DIRECTION ( 'NONE',  ( -1.000000000000000000, 0.0000000000000000000, 0.0000000000000000000 ) ) ;
ENDSEC;
END-ISO-10303-21;
