ISO-10303-21;
HEADER;
FILE_DESCRIPTION (( 'STEP AP203' ),
    '1' );
FILE_NAME ('Web Model 47683_47683.step',
    '2020-10-07T17:27:11',
    ( '' ),
    ( '' ),
    'SwSTEP 2.0',
    'SolidWorks 2018',
    '' );
FILE_SCHEMA (( 'CONFIG_CONTROL_DESIGN' ));
ENDSEC;

DATA;
#1 = PLANE ( 'NONE',  #110 ) ;
#2 = AXIS2_PLACEMENT_3D ( 'NONE', #111, #112, #31 ) ;
#3 = APPROVAL_STATUS ( 'not_yet_approved' ) ;
#4 =( NAMED_UNIT ( * ) PLANE_ANGLE_UNIT ( ) SI_UNIT ( $, .RADIAN. ) );
#5 = EDGE_LOOP ( 'NONE', ( #72, #44, #8, #20 ) ) ;
#6 = EDGE_LOOP ( 'NONE', ( #74, #124, #150, #115 ) ) ;
#7 = ADVANCED_BREP_SHAPE_REPRESENTATION ( 'Web Model 47683_47683', ( #147, #2 ), #128 ) ;
#8 = ORIENTED_EDGE ( 'NONE', *, *, #151, .T. ) ;
#9 = EDGE_CURVE ( 'NONE', #108, #162, #18, .T. ) ;
#10 = DATE_AND_TIME ( #121, #160 ) ;
#11 = ORIENTED_EDGE ( 'NONE', *, *, #9, .T. ) ;
#12 = DIRECTION ( 'NONE',  ( -0.0000000000000000000, -0.0000000000000000000, -1.000000000000000000 ) ) ;
#13 = DIRECTION ( 'NONE',  ( 0.0000000000000000000, 0.0000000000000000000, 1.000000000000000000 ) ) ;
#14 = DATE_AND_TIME ( #170, #120 ) ;
#15 = EDGE_CURVE ( 'NONE', #108, #136, #113, .T. ) ;
#16 = CARTESIAN_POINT ( 'NONE',  ( 0.0000000000000000000, 0.0000000000000000000, -1.500000000000000000 ) ) ;
#17 = PERSON_AND_ORGANIZATION_ROLE ( 'creator' ) ;
#18 = CIRCLE ( 'NONE', #56, 12.50000000000000000 ) ;
#19 = APPLICATION_CONTEXT ( 'configuration controlled 3d designs of mechanical parts and assemblies' ) ;
#20 = ORIENTED_EDGE ( 'NONE', *, *, #99, .T. ) ;
#21 = UNCERTAINTY_MEASURE_WITH_UNIT (LENGTH_MEASURE( 1.000000000000000082E-05 ), #85, 'distance_accuracy_value', 'NONE');
#22 = CC_DESIGN_PERSON_AND_ORGANIZATION_ASSIGNMENT ( #58, #126, ( #159 ) ) ;
#23 = PERSON_AND_ORGANIZATION ( #63, #61 ) ;
#24 = CIRCLE ( 'NONE', #118, 12.50000000000000000 ) ;
#25 = PRODUCT_DEFINITION_SHAPE ( 'NONE', 'NONE',  #138 ) ;
#26 = PERSON_AND_ORGANIZATION ( #63, #61 ) ;
#27 = DATE_AND_TIME ( #133, #84 ) ;
#28 = CC_DESIGN_APPROVAL ( #140, ( #159 ) ) ;
#29 = CIRCLE ( 'NONE', #77, 12.50000000000000000 ) ;
#30 = CC_DESIGN_SECURITY_CLASSIFICATION ( #122, ( #159 ) ) ;
#31 = DIRECTION ( 'NONE',  ( 1.000000000000000000, 0.0000000000000000000, 0.0000000000000000000 ) ) ;
#32 = PERSON_AND_ORGANIZATION_ROLE ( 'design_owner' ) ;
#33 = ORIENTED_EDGE ( 'NONE', *, *, #161, .F. ) ;
#34 = EDGE_LOOP ( 'NONE', ( #52, #33 ) ) ;
#35 = APPLICATION_PROTOCOL_DEFINITION ( 'international standard', 'config_control_design', 1994, #70 ) ;
#36 = AXIS2_PLACEMENT_3D ( 'NONE', #57, #59, #153 ) ;
#37 = APPROVAL_PERSON_ORGANIZATION ( #23, #146, #86 ) ;
#38 = VERTEX_POINT ( 'NONE', #134 ) ;
#39 = COORDINATED_UNIVERSAL_TIME_OFFSET ( 5, 0, .BEHIND. ) ;
#40 = CARTESIAN_POINT ( 'NONE',  ( 12.50000000000000000, 1.530808498934191521E-15, 1.500000000000000000 ) ) ;
#41 = DIRECTION ( 'NONE',  ( -1.000000000000000000, 0.0000000000000000000, 0.0000000000000000000 ) ) ;
#42 = DIRECTION ( 'NONE',  ( -0.0000000000000000000, -0.0000000000000000000, -1.000000000000000000 ) ) ;
#43 = AXIS2_PLACEMENT_3D ( 'NONE', #79, #42, #41 ) ;
#44 = ORIENTED_EDGE ( 'NONE', *, *, #130, .F. ) ;
#45 = APPLICATION_PROTOCOL_DEFINITION ( 'international standard', 'config_control_design', 1994, #19 ) ;
#46 = APPROVAL_STATUS ( 'not_yet_approved' ) ;
#47 = DIRECTION ( 'NONE',  ( 0.0000000000000000000, 0.0000000000000000000, 1.000000000000000000 ) ) ;
#48 = COORDINATED_UNIVERSAL_TIME_OFFSET ( 5, 0, .BEHIND. ) ;
#49 = VECTOR ( 'NONE', #123, 1000.000000000000000 ) ;
#50 = CC_DESIGN_PERSON_AND_ORGANIZATION_ASSIGNMENT ( #26, #32, ( #64 ) ) ;
#51 = LOCAL_TIME ( 13, 27, 11.00000000000000000, #48 ) ;
#52 = ORIENTED_EDGE ( 'NONE', *, *, #99, .F. ) ;
#53 = CC_DESIGN_APPROVAL ( #146, ( #122 ) ) ;
#54 = ADVANCED_FACE ( 'NONE', ( #76 ), #143, .T. ) ;
#55 = CIRCLE ( 'NONE', #68, 12.50000000000000000 ) ;
#56 = AXIS2_PLACEMENT_3D ( 'NONE', #91, #67, #69 ) ;
#57 = CARTESIAN_POINT ( 'NONE',  ( 0.0000000000000000000, 0.0000000000000000000, 1.500000000000000000 ) ) ;
#58 = PERSON_AND_ORGANIZATION ( #63, #61 ) ;
#59 = DIRECTION ( 'NONE',  ( 0.0000000000000000000, 0.0000000000000000000, 1.000000000000000000 ) ) ;
#60 = PLANE ( 'NONE',  #36 ) ;
#61 = ORGANIZATION ( 'UNSPECIFIED', 'UNSPECIFIED', '' ) ;
#62 = PERSON_AND_ORGANIZATION ( #63, #61 ) ;
#63 = PERSON ( 'UNSPECIFIED', 'UNSPECIFIED', 'UNSPECIFIED', ('UNSPECIFIED'), ('UNSPECIFIED'), ('UNSPECIFIED') ) ;
#64 = PRODUCT ( 'Web Model 47683_47683', 'Web Model 47683_47683', '', ( #141 ) ) ;
#65 = DIRECTION ( 'NONE',  ( -0.0000000000000000000, -0.0000000000000000000, -1.000000000000000000 ) ) ;
#66 = FACE_OUTER_BOUND ( 'NONE', #6, .T. ) ;
#67 = DIRECTION ( 'NONE',  ( 0.0000000000000000000, 0.0000000000000000000, 1.000000000000000000 ) ) ;
#68 = AXIS2_PLACEMENT_3D ( 'NONE', #16, #107, #106 ) ;
#69 = DIRECTION ( 'NONE',  ( 1.000000000000000000, 0.0000000000000000000, 0.0000000000000000000 ) ) ;
#70 = APPLICATION_CONTEXT ( 'configuration controlled 3d designs of mechanical parts and assemblies' ) ;
#71 = APPROVAL_STATUS ( 'not_yet_approved' ) ;
#72 = ORIENTED_EDGE ( 'NONE', *, *, #15, .F. ) ;
#73 = CARTESIAN_POINT ( 'NONE',  ( -12.50000000000000000, 0.0000000000000000000, 1.500000000000000000 ) ) ;
#74 = ORIENTED_EDGE ( 'NONE', *, *, #9, .F. ) ;
#75 = CC_DESIGN_PERSON_AND_ORGANIZATION_ASSIGNMENT ( #127, #17, ( #138 ) ) ;
#76 = FACE_OUTER_BOUND ( 'NONE', #5, .T. ) ;
#77 = AXIS2_PLACEMENT_3D ( 'NONE', #93, #13, #105 ) ;
#78 = SHAPE_DEFINITION_REPRESENTATION ( #25, #7 ) ;
#79 = CARTESIAN_POINT ( 'NONE',  ( 0.0000000000000000000, 0.0000000000000000000, 1.500000000000000000 ) ) ;
#80 = ADVANCED_FACE ( 'NONE', ( #66 ), #98, .T. ) ;
#81 = CC_DESIGN_PERSON_AND_ORGANIZATION_ASSIGNMENT ( #89, #109, ( #159 ) ) ;
#82 = CARTESIAN_POINT ( 'NONE',  ( 12.50000000000000000, 1.530808498934191521E-15, 1.500000000000000000 ) ) ;
#83 = CARTESIAN_POINT ( 'NONE',  ( 0.0000000000000000000, 0.0000000000000000000, 1.500000000000000000 ) ) ;
#84 = LOCAL_TIME ( 13, 27, 11.00000000000000000, #119 ) ;
#85 =( LENGTH_UNIT ( ) NAMED_UNIT ( * ) SI_UNIT ( .MILLI., .METRE. ) );
#86 = APPROVAL_ROLE ( '' ) ;
#87 = PERSON_AND_ORGANIZATION_ROLE ( 'classification_officer' ) ;
#88 = APPROVAL_PERSON_ORGANIZATION ( #62, #102, #97 ) ;
#89 = PERSON_AND_ORGANIZATION ( #63, #61 ) ;
#90 = EDGE_LOOP ( 'NONE', ( #145, #11 ) ) ;
#91 = CARTESIAN_POINT ( 'NONE',  ( 0.0000000000000000000, 0.0000000000000000000, 1.500000000000000000 ) ) ;
#92 = DIRECTION ( 'NONE',  ( -1.000000000000000000, 0.0000000000000000000, 0.0000000000000000000 ) ) ;
#93 = CARTESIAN_POINT ( 'NONE',  ( 0.0000000000000000000, 0.0000000000000000000, 1.500000000000000000 ) ) ;
#94 = VECTOR ( 'NONE', #65, 1000.000000000000000 ) ;
#95 = CARTESIAN_POINT ( 'NONE',  ( 0.0000000000000000000, 0.0000000000000000000, -1.500000000000000000 ) ) ;
#96 = APPROVAL_ROLE ( '' ) ;
#97 = APPROVAL_ROLE ( '' ) ;
#98 = CYLINDRICAL_SURFACE ( 'NONE', #43, 12.50000000000000000 ) ;
#99 = EDGE_CURVE ( 'NONE', #38, #136, #55, .T. ) ;
#100 = COORDINATED_UNIVERSAL_TIME_OFFSET ( 5, 0, .BEHIND. ) ;
#101 = LINE ( 'NONE', #125, #49 ) ;
#102 = APPROVAL ( #46, 'UNSPECIFIED' ) ;
#103 = DIRECTION ( 'NONE',  ( 0.0000000000000000000, 0.0000000000000000000, 1.000000000000000000 ) ) ;
#104 = APPROVAL_DATE_TIME ( #174, #146 ) ;
#105 = DIRECTION ( 'NONE',  ( 1.000000000000000000, 0.0000000000000000000, 0.0000000000000000000 ) ) ;
#106 = DIRECTION ( 'NONE',  ( 1.000000000000000000, 0.0000000000000000000, 0.0000000000000000000 ) ) ;
#107 = DIRECTION ( 'NONE',  ( 0.0000000000000000000, 0.0000000000000000000, 1.000000000000000000 ) ) ;
#108 = VERTEX_POINT ( 'NONE', #82 ) ;
#109 = PERSON_AND_ORGANIZATION_ROLE ( 'design_supplier' ) ;
#110 = AXIS2_PLACEMENT_3D ( 'NONE', #163, #103, #175 ) ;
#111 = CARTESIAN_POINT ( 'NONE',  ( 0.0000000000000000000, 0.0000000000000000000, 0.0000000000000000000 ) ) ;
#112 = DIRECTION ( 'NONE',  ( 0.0000000000000000000, 0.0000000000000000000, 1.000000000000000000 ) ) ;
#113 = LINE ( 'NONE', #40, #94 ) ;
#114 = LOCAL_TIME ( 13, 27, 11.00000000000000000, #100 ) ;
#115 = ORIENTED_EDGE ( 'NONE', *, *, #151, .F. ) ;
#116 = CC_DESIGN_DATE_AND_TIME_ASSIGNMENT ( #10, #167, ( #138 ) ) ;
#117 = PERSON_AND_ORGANIZATION ( #63, #61 ) ;
#118 = AXIS2_PLACEMENT_3D ( 'NONE', #95, #47, #169 ) ;
#119 = COORDINATED_UNIVERSAL_TIME_OFFSET ( 5, 0, .BEHIND. ) ;
#120 = LOCAL_TIME ( 13, 27, 11.00000000000000000, #39 ) ;
#121 = CALENDAR_DATE ( 2020, 7, 10 ) ;
#122 = SECURITY_CLASSIFICATION ( '', '', #168 ) ;
#123 = DIRECTION ( 'NONE',  ( -0.0000000000000000000, -0.0000000000000000000, -1.000000000000000000 ) ) ;
#124 = ORIENTED_EDGE ( 'NONE', *, *, #15, .T. ) ;
#125 = CARTESIAN_POINT ( 'NONE',  ( -12.50000000000000000, 0.0000000000000000000, 1.500000000000000000 ) ) ;
#126 = PERSON_AND_ORGANIZATION_ROLE ( 'creator' ) ;
#127 = PERSON_AND_ORGANIZATION ( #63, #61 ) ;
#128 =( GEOMETRIC_REPRESENTATION_CONTEXT ( 3 ) GLOBAL_UNCERTAINTY_ASSIGNED_CONTEXT ( ( #21 ) ) GLOBAL_UNIT_ASSIGNED_CONTEXT ( ( #85, #4, #142 ) ) REPRESENTATION_CONTEXT ( 'NONE', 'WORKASPACE' ) );
#129 = APPROVAL_DATE_TIME ( #27, #140 ) ;
#130 = EDGE_CURVE ( 'NONE', #162, #108, #29, .T. ) ;
#131 = CC_DESIGN_APPROVAL ( #102, ( #138 ) ) ;
#132 = CC_DESIGN_PERSON_AND_ORGANIZATION_ASSIGNMENT ( #117, #87, ( #122 ) ) ;
#133 = CALENDAR_DATE ( 2020, 7, 10 ) ;
#134 = CARTESIAN_POINT ( 'NONE',  ( -12.50000000000000000, 0.0000000000000000000, -1.500000000000000000 ) ) ;
#135 = ADVANCED_FACE ( 'NONE', ( #158 ), #1, .F. ) ;
#136 = VERTEX_POINT ( 'NONE', #165 ) ;
#137 = CLOSED_SHELL ( 'NONE', ( #80, #54, #152, #135 ) ) ;
#138 = PRODUCT_DEFINITION ( 'UNKNOWN', '', #159, #173 ) ;
#139 = CALENDAR_DATE ( 2020, 7, 10 ) ;
#140 = APPROVAL ( #3, 'UNSPECIFIED' ) ;
#141 = MECHANICAL_CONTEXT ( 'NONE', #19, 'mechanical' ) ;
#142 =( NAMED_UNIT ( * ) SI_UNIT ( $, .STERADIAN. ) SOLID_ANGLE_UNIT ( ) );
#143 = CYLINDRICAL_SURFACE ( 'NONE', #172, 12.50000000000000000 ) ;
#144 = CC_DESIGN_DATE_AND_TIME_ASSIGNMENT ( #149, #155, ( #122 ) ) ;
#145 = ORIENTED_EDGE ( 'NONE', *, *, #130, .T. ) ;
#146 = APPROVAL ( #71, 'UNSPECIFIED' ) ;
#147 = MANIFOLD_SOLID_BREP ( 'Boss-Extrude1', #137 ) ;
#148 = PRODUCT_RELATED_PRODUCT_CATEGORY ( 'detail', '', ( #64 ) ) ;
#149 = DATE_AND_TIME ( #157, #51 ) ;
#150 = ORIENTED_EDGE ( 'NONE', *, *, #161, .T. ) ;
#151 = EDGE_CURVE ( 'NONE', #162, #38, #101, .T. ) ;
#152 = ADVANCED_FACE ( 'NONE', ( #171 ), #60, .T. ) ;
#153 = DIRECTION ( 'NONE',  ( 1.000000000000000000, 0.0000000000000000000, -0.0000000000000000000 ) ) ;
#154 = APPROVAL_PERSON_ORGANIZATION ( #156, #140, #96 ) ;
#155 = DATE_TIME_ROLE ( 'classification_date' ) ;
#156 = PERSON_AND_ORGANIZATION ( #63, #61 ) ;
#157 = CALENDAR_DATE ( 2020, 7, 10 ) ;
#158 = FACE_OUTER_BOUND ( 'NONE', #34, .T. ) ;
#159 = PRODUCT_DEFINITION_FORMATION_WITH_SPECIFIED_SOURCE ( 'ANY', '', #64, .NOT_KNOWN. ) ;
#160 = LOCAL_TIME ( 13, 27, 11.00000000000000000, #166 ) ;
#161 = EDGE_CURVE ( 'NONE', #136, #38, #24, .T. ) ;
#162 = VERTEX_POINT ( 'NONE', #73 ) ;
#163 = CARTESIAN_POINT ( 'NONE',  ( 0.0000000000000000000, 0.0000000000000000000, -1.500000000000000000 ) ) ;
#164 = APPROVAL_DATE_TIME ( #14, #102 ) ;
#165 = CARTESIAN_POINT ( 'NONE',  ( 12.50000000000000000, 1.530808498934191521E-15, -1.500000000000000000 ) ) ;
#166 = COORDINATED_UNIVERSAL_TIME_OFFSET ( 5, 0, .BEHIND. ) ;
#167 = DATE_TIME_ROLE ( 'creation_date' ) ;
#168 = SECURITY_CLASSIFICATION_LEVEL ( 'unclassified' ) ;
#169 = DIRECTION ( 'NONE',  ( 1.000000000000000000, 0.0000000000000000000, 0.0000000000000000000 ) ) ;
#170 = CALENDAR_DATE ( 2020, 7, 10 ) ;
#171 = FACE_OUTER_BOUND ( 'NONE', #90, .T. ) ;
#172 = AXIS2_PLACEMENT_3D ( 'NONE', #83, #12, #92 ) ;
#173 = DESIGN_CONTEXT ( 'detailed design', #70, 'design' ) ;
#174 = DATE_AND_TIME ( #139, #114 ) ;
#175 = DIRECTION ( 'NONE',  ( 1.000000000000000000, 0.0000000000000000000, -0.0000000000000000000 ) ) ;
ENDSEC;
END-ISO-10303-21;
