ISO-10303-21;
HEADER;
FILE_DESCRIPTION (( 'STEP AP203' ),
    '1' );
FILE_NAME ('Web Model 20199_20204.step',
    '2022-03-01T14:47:36',
    ( '' ),
    ( '' ),
    'SwSTEP 2.0',
    'SolidWorks 2021',
    '' );
FILE_SCHEMA (( 'CONFIG_CONTROL_DESIGN' ));
ENDSEC;

DATA;
#1 = ORGANIZATION ( 'UNSPECIFIED', 'UNSPECIFIED', '' ) ;
#2 = ORIENTED_EDGE ( 'NONE', *, *, #134, .T. ) ;
#3 = CARTESIAN_POINT ( 'NONE',  ( 25.39999999999999503, 38.10000000000000853, 0.1000000000000000056 ) ) ;
#4 = EDGE_LOOP ( 'NONE', ( #102, #56, #76, #6 ) ) ;
#5 = LOCAL_TIME ( 9, 47, 36.00000000000000000, #121 ) ;
#6 = ORIENTED_EDGE ( 'NONE', *, *, #105, .T. ) ;
#7 = UNCERTAINTY_MEASURE_WITH_UNIT (LENGTH_MEASURE( 1.000000000000000082E-05 ), #111, 'distance_accuracy_value', 'NONE');
#8 = CARTESIAN_POINT ( 'NONE',  ( -25.39999999999999147, -38.09999999999999432, 0.1000000000000000056 ) ) ;
#9 = PRODUCT_DEFINITION_SHAPE ( 'NONE', 'NONE',  #120 ) ;
#10 = PLANE ( 'NONE',  #152 ) ;
#11 = DIRECTION ( 'NONE',  ( 1.000000000000000000, 1.365923996832131856E-16, -0.000000000000000000 ) ) ;
#12 = PLANE ( 'NONE',  #54 ) ;
#13 = PERSON_AND_ORGANIZATION ( #149, #1 ) ;
#14 = DIRECTION ( 'NONE',  ( 0.000000000000000000, 0.000000000000000000, 1.000000000000000000 ) ) ;
#15 = COORDINATED_UNIVERSAL_TIME_OFFSET ( 5, 0, .BEHIND. ) ;
#16 = EDGE_CURVE ( 'NONE', #58, #182, #164, .T. ) ;
#17 = APPROVAL_STATUS ( 'not_yet_approved' ) ;
#18 = PERSON_AND_ORGANIZATION_ROLE ( 'creator' ) ;
#19 = ORIENTED_EDGE ( 'NONE', *, *, #128, .F. ) ;
#20 = EDGE_LOOP ( 'NONE', ( #220, #150, #78, #205 ) ) ;
#21 = EDGE_CURVE ( 'NONE', #41, #225, #184, .T. ) ;
#22 = MANIFOLD_SOLID_BREP ( 'Boss-Extrude1', #72 ) ;
#23 = LOCAL_TIME ( 9, 47, 36.00000000000000000, #138 ) ;
#24 = CARTESIAN_POINT ( 'NONE',  ( -25.40000000000000213, 38.10000000000000853, 0.1000000000000000056 ) ) ;
#25 = LINE ( 'NONE', #90, #237 ) ;
#26 = PRODUCT ( 'Web Model 20199_20204', 'Web Model 20199_20204', '', ( #180 ) ) ;
#27 = CC_DESIGN_PERSON_AND_ORGANIZATION_ASSIGNMENT ( #13, #84, ( #74 ) ) ;
#28 = DIRECTION ( 'NONE',  ( -1.000000000000000000, -1.365923996832131856E-16, 0.000000000000000000 ) ) ;
#29 = FACE_OUTER_BOUND ( 'NONE', #101, .T. ) ;
#30 = LINE ( 'NONE', #96, #165 ) ;
#31 = EDGE_CURVE ( 'NONE', #129, #57, #25, .T. ) ;
#32 = CARTESIAN_POINT ( 'NONE',  ( -25.39999999999999147, -38.09999999999999432, 0.000000000000000000 ) ) ;
#33 = CARTESIAN_POINT ( 'NONE',  ( 25.39999999999999503, 38.10000000000000853, 0.1000000000000000056 ) ) ;
#34 = PERSON_AND_ORGANIZATION_ROLE ( 'creator' ) ;
#35 = VECTOR ( 'NONE', #224, 1000.000000000000000 ) ;
#36 = CARTESIAN_POINT ( 'NONE',  ( 0.000000000000000000, 0.000000000000000000, 0.000000000000000000 ) ) ;
#37 = AXIS2_PLACEMENT_3D ( 'NONE', #33, #28, #61 ) ;
#38 = APPROVAL_DATE_TIME ( #198, #154 ) ;
#39 = PERSON_AND_ORGANIZATION ( #149, #1 ) ;
#40 = ORIENTED_EDGE ( 'NONE', *, *, #53, .F. ) ;
#41 = VERTEX_POINT ( 'NONE', #169 ) ;
#42 = SECURITY_CLASSIFICATION ( '', '', #157 ) ;
#43 = ORIENTED_EDGE ( 'NONE', *, *, #31, .T. ) ;
#44 = CARTESIAN_POINT ( 'NONE',  ( -25.39999999999999147, -38.09999999999999432, 0.1000000000000000056 ) ) ;
#45 = VECTOR ( 'NONE', #174, 1000.000000000000000 ) ;
#46 = FACE_OUTER_BOUND ( 'NONE', #20, .T. ) ;
#47 = FACE_OUTER_BOUND ( 'NONE', #206, .T. ) ;
#48 = DIRECTION ( 'NONE',  ( -0.000000000000000000, -0.000000000000000000, -1.000000000000000000 ) ) ;
#49 = APPROVAL_PERSON_ORGANIZATION ( #158, #154, #216 ) ;
#50 = LINE ( 'NONE', #189, #45 ) ;
#51 = EDGE_CURVE ( 'NONE', #183, #73, #107, .T. ) ;
#52 = CALENDAR_DATE ( 2022, 1, 3 ) ;
#53 = EDGE_CURVE ( 'NONE', #41, #182, #223, .T. ) ;
#54 = AXIS2_PLACEMENT_3D ( 'NONE', #8, #135, #231 ) ;
#55 = CC_DESIGN_PERSON_AND_ORGANIZATION_ASSIGNMENT ( #117, #18, ( #120 ) ) ;
#56 = ORIENTED_EDGE ( 'NONE', *, *, #202, .T. ) ;
#57 = VERTEX_POINT ( 'NONE', #59 ) ;
#58 = VERTEX_POINT ( 'NONE', #187 ) ;
#59 = CARTESIAN_POINT ( 'NONE',  ( 25.40000000000000568, -38.09999999999999432, 0.000000000000000000 ) ) ;
#60 = ORIENTED_EDGE ( 'NONE', *, *, #128, .T. ) ;
#61 = DIRECTION ( 'NONE',  ( 1.365923996832131856E-16, -1.000000000000000000, 0.000000000000000000 ) ) ;
#62 = CARTESIAN_POINT ( 'NONE',  ( -25.40000000000000213, 38.10000000000000853, 0.1000000000000000056 ) ) ;
#63 = FACE_OUTER_BOUND ( 'NONE', #168, .T. ) ;
#64 = CARTESIAN_POINT ( 'NONE',  ( 0.000000000000000000, 0.000000000000000000, 0.000000000000000000 ) ) ;
#65 = EDGE_CURVE ( 'NONE', #182, #129, #50, .T. ) ;
#66 = APPLICATION_PROTOCOL_DEFINITION ( 'international standard', 'config_control_design', 1994, #70 ) ;
#67 = PERSON_AND_ORGANIZATION_ROLE ( 'classification_officer' ) ;
#68 = DIRECTION ( 'NONE',  ( 1.000000000000000000, 0.000000000000000000, 0.000000000000000000 ) ) ;
#69 = ADVANCED_FACE ( 'NONE', ( #46 ), #171, .F. ) ;
#70 = APPLICATION_CONTEXT ( 'configuration controlled 3d designs of mechanical parts and assemblies' ) ;
#71 = DATE_TIME_ROLE ( 'creation_date' ) ;
#72 = CLOSED_SHELL ( 'NONE', ( #167, #106, #69, #179, #163, #89 ) ) ;
#73 = VERTEX_POINT ( 'NONE', #151 ) ;
#74 = PRODUCT_DEFINITION_FORMATION_WITH_SPECIFIED_SOURCE ( 'ANY', '', #26, .NOT_KNOWN. ) ;
#75 = ORIENTED_EDGE ( 'NONE', *, *, #16, .T. ) ;
#76 = ORIENTED_EDGE ( 'NONE', *, *, #21, .T. ) ;
#77 = ORIENTED_EDGE ( 'NONE', *, *, #134, .F. ) ;
#78 = ORIENTED_EDGE ( 'NONE', *, *, #21, .F. ) ;
#79 = CARTESIAN_POINT ( 'NONE',  ( 0.000000000000000000, 0.000000000000000000, 0.1000000000000000056 ) ) ;
#80 = APPROVAL_PERSON_ORGANIZATION ( #140, #139, #233 ) ;
#81 = LINE ( 'NONE', #44, #133 ) ;
#82 = LINE ( 'NONE', #114, #146 ) ;
#83 = PLANE ( 'NONE',  #37 ) ;
#84 = PERSON_AND_ORGANIZATION_ROLE ( 'design_supplier' ) ;
#85 = CALENDAR_DATE ( 2022, 1, 3 ) ;
#86 = DATE_AND_TIME ( #52, #23 ) ;
#87 = CC_DESIGN_PERSON_AND_ORGANIZATION_ASSIGNMENT ( #215, #67, ( #42 ) ) ;
#88 = LOCAL_TIME ( 9, 47, 36.00000000000000000, #194 ) ;
#89 = ADVANCED_FACE ( 'NONE', ( #47 ), #116, .F. ) ;
#90 = CARTESIAN_POINT ( 'NONE',  ( -25.39999999999999147, -38.09999999999999432, 0.000000000000000000 ) ) ;
#91 = ORIENTED_EDGE ( 'NONE', *, *, #221, .F. ) ;
#92 = DIRECTION ( 'NONE',  ( -1.365923996832131856E-16, 1.000000000000000000, 0.000000000000000000 ) ) ;
#93 = DIRECTION ( 'NONE',  ( 1.000000000000000000, 0.000000000000000000, 0.000000000000000000 ) ) ;
#94 = DIRECTION ( 'NONE',  ( -0.000000000000000000, 0.000000000000000000, 1.000000000000000000 ) ) ;
#95 = DIRECTION ( 'NONE',  ( -0.000000000000000000, -0.000000000000000000, -1.000000000000000000 ) ) ;
#96 = CARTESIAN_POINT ( 'NONE',  ( -25.40000000000000213, 38.10000000000000853, 0.1000000000000000056 ) ) ;
#97 = CALENDAR_DATE ( 2022, 1, 3 ) ;
#98 = APPROVAL_DATE_TIME ( #218, #173 ) ;
#99 = SHAPE_DEFINITION_REPRESENTATION ( #9, #175 ) ;
#100 = APPLICATION_PROTOCOL_DEFINITION ( 'international standard', 'config_control_design', 1994, #122 ) ;
#101 = EDGE_LOOP ( 'NONE', ( #75, #40, #103, #127 ) ) ;
#102 = ORIENTED_EDGE ( 'NONE', *, *, #51, .T. ) ;
#103 = ORIENTED_EDGE ( 'NONE', *, *, #202, .F. ) ;
#104 = VECTOR ( 'NONE', #210, 1000.000000000000000 ) ;
#105 = EDGE_CURVE ( 'NONE', #225, #183, #207, .T. ) ;
#106 = ADVANCED_FACE ( 'NONE', ( #29 ), #188, .F. ) ;
#107 = LINE ( 'NONE', #3, #196 ) ;
#108 = DESIGN_CONTEXT ( 'detailed design', #70, 'design' ) ;
#109 = CARTESIAN_POINT ( 'NONE',  ( -25.40000000000000213, 38.10000000000000853, 0.1000000000000000056 ) ) ;
#110 = CARTESIAN_POINT ( 'NONE',  ( -25.40000000000000213, 38.10000000000000853, 0.1000000000000000056 ) ) ;
#111 =( LENGTH_UNIT ( ) NAMED_UNIT ( * ) SI_UNIT ( .MILLI., .METRE. ) );
#112 = DIRECTION ( 'NONE',  ( 1.000000000000000000, 0.000000000000000000, 0.000000000000000000 ) ) ;
#113 = CC_DESIGN_SECURITY_CLASSIFICATION ( #42, ( #74 ) ) ;
#114 = CARTESIAN_POINT ( 'NONE',  ( 25.40000000000000568, -38.09999999999999432, 0.1000000000000000056 ) ) ;
#115 = AXIS2_PLACEMENT_3D ( 'NONE', #64, #94, #112 ) ;
#116 = PLANE ( 'NONE',  #115 ) ;
#117 = PERSON_AND_ORGANIZATION ( #149, #1 ) ;
#118 = APPROVAL_DATE_TIME ( #200, #139 ) ;
#119 = EDGE_CURVE ( 'NONE', #225, #129, #81, .T. ) ;
#120 = PRODUCT_DEFINITION ( 'UNKNOWN', '', #74, #108 ) ;
#121 = COORDINATED_UNIVERSAL_TIME_OFFSET ( 5, 0, .BEHIND. ) ;
#122 = APPLICATION_CONTEXT ( 'configuration controlled 3d designs of mechanical parts and assemblies' ) ;
#123 = CC_DESIGN_APPROVAL ( #139, ( #74 ) ) ;
#124 = APPROVAL_STATUS ( 'not_yet_approved' ) ;
#125 = APPROVAL_ROLE ( '' ) ;
#126 = ORIENTED_EDGE ( 'NONE', *, *, #31, .F. ) ;
#127 = ORIENTED_EDGE ( 'NONE', *, *, #221, .T. ) ;
#128 = EDGE_CURVE ( 'NONE', #183, #57, #82, .T. ) ;
#129 = VERTEX_POINT ( 'NONE', #32 ) ;
#130 = CARTESIAN_POINT ( 'NONE',  ( -25.39999999999999147, -38.09999999999999432, 0.1000000000000000056 ) ) ;
#131 = CC_DESIGN_DATE_AND_TIME_ASSIGNMENT ( #86, #195, ( #42 ) ) ;
#132 = VECTOR ( 'NONE', #204, 1000.000000000000000 ) ;
#133 = VECTOR ( 'NONE', #95, 1000.000000000000000 ) ;
#134 = EDGE_CURVE ( 'NONE', #57, #58, #213, .T. ) ;
#135 = DIRECTION ( 'NONE',  ( 0.000000000000000000, 1.000000000000000000, 0.000000000000000000 ) ) ;
#136 = CC_DESIGN_APPROVAL ( #154, ( #42 ) ) ;
#137 = CARTESIAN_POINT ( 'NONE',  ( -25.40000000000000213, 38.10000000000000853, 0.000000000000000000 ) ) ;
#138 = COORDINATED_UNIVERSAL_TIME_OFFSET ( 5, 0, .BEHIND. ) ;
#139 = APPROVAL ( #124, 'UNSPECIFIED' ) ;
#140 = PERSON_AND_ORGANIZATION ( #149, #1 ) ;
#141 = PERSON_AND_ORGANIZATION ( #149, #1 ) ;
#142 = CC_DESIGN_APPROVAL ( #173, ( #120 ) ) ;
#143 = DATE_AND_TIME ( #85, #211 ) ;
#144 = VECTOR ( 'NONE', #186, 1000.000000000000000 ) ;
#145 = EDGE_LOOP ( 'NONE', ( #2, #91, #222, #60 ) ) ;
#146 = VECTOR ( 'NONE', #172, 1000.000000000000000 ) ;
#147 = DIRECTION ( 'NONE',  ( -1.365923996832131609E-16, 1.000000000000000000, -0.000000000000000000 ) ) ;
#148 = CARTESIAN_POINT ( 'NONE',  ( -25.40000000000000213, 38.10000000000000853, 0.000000000000000000 ) ) ;
#149 = PERSON ( 'UNSPECIFIED', 'UNSPECIFIED', 'UNSPECIFIED', ('UNSPECIFIED'), ('UNSPECIFIED'), ('UNSPECIFIED') ) ;
#150 = ORIENTED_EDGE ( 'NONE', *, *, #119, .F. ) ;
#151 = CARTESIAN_POINT ( 'NONE',  ( 25.39999999999999503, 38.10000000000000853, 0.1000000000000000056 ) ) ;
#152 = AXIS2_PLACEMENT_3D ( 'NONE', #79, #155, #93 ) ;
#153 = CARTESIAN_POINT ( 'NONE',  ( 25.39999999999999503, 38.10000000000000853, 0.000000000000000000 ) ) ;
#154 = APPROVAL ( #199, 'UNSPECIFIED' ) ;
#155 = DIRECTION ( 'NONE',  ( -0.000000000000000000, 0.000000000000000000, 1.000000000000000000 ) ) ;
#156 = DIRECTION ( 'NONE',  ( -1.000000000000000000, -0.000000000000000000, -0.000000000000000000 ) ) ;
#157 = SECURITY_CLASSIFICATION_LEVEL ( 'unclassified' ) ;
#158 = PERSON_AND_ORGANIZATION ( #149, #1 ) ;
#159 = CALENDAR_DATE ( 2022, 1, 3 ) ;
#160 = PERSON_AND_ORGANIZATION_ROLE ( 'design_owner' ) ;
#161 = CALENDAR_DATE ( 2022, 1, 3 ) ;
#162 = ORIENTED_EDGE ( 'NONE', *, *, #65, .F. ) ;
#163 = ADVANCED_FACE ( 'NONE', ( #176 ), #10, .T. ) ;
#164 = LINE ( 'NONE', #148, #132 ) ;
#165 = VECTOR ( 'NONE', #156, 1000.000000000000000 ) ;
#166 = DIRECTION ( 'NONE',  ( 1.000000000000000000, 0.000000000000000000, 0.000000000000000000 ) ) ;
#167 = ADVANCED_FACE ( 'NONE', ( #226 ), #83, .F. ) ;
#168 = EDGE_LOOP ( 'NONE', ( #43, #19, #236, #201 ) ) ;
#169 = CARTESIAN_POINT ( 'NONE',  ( -25.40000000000000213, 38.10000000000000853, 0.1000000000000000056 ) ) ;
#170 = CARTESIAN_POINT ( 'NONE',  ( 25.40000000000000568, -38.09999999999999432, 0.1000000000000000056 ) ) ;
#171 = PLANE ( 'NONE',  #208 ) ;
#172 = DIRECTION ( 'NONE',  ( -0.000000000000000000, -0.000000000000000000, -1.000000000000000000 ) ) ;
#173 = APPROVAL ( #17, 'UNSPECIFIED' ) ;
#174 = DIRECTION ( 'NONE',  ( 1.365923996832131609E-16, -1.000000000000000000, 0.000000000000000000 ) ) ;
#175 = ADVANCED_BREP_SHAPE_REPRESENTATION ( 'Web Model 20199_20204', ( #22, #229 ), #197 ) ;
#176 = FACE_OUTER_BOUND ( 'NONE', #4, .T. ) ;
#177 = PRODUCT_RELATED_PRODUCT_CATEGORY ( 'detail', '', ( #26 ) ) ;
#178 = LOCAL_TIME ( 9, 47, 36.00000000000000000, #15 ) ;
#179 = ADVANCED_FACE ( 'NONE', ( #63 ), #12, .F. ) ;
#180 = MECHANICAL_CONTEXT ( 'NONE', #122, 'mechanical' ) ;
#181 = COORDINATED_UNIVERSAL_TIME_OFFSET ( 5, 0, .BEHIND. ) ;
#182 = VERTEX_POINT ( 'NONE', #137 ) ;
#183 = VERTEX_POINT ( 'NONE', #170 ) ;
#184 = LINE ( 'NONE', #24, #35 ) ;
#185 = APPROVAL_PERSON_ORGANIZATION ( #141, #173, #125 ) ;
#186 = DIRECTION ( 'NONE',  ( -0.000000000000000000, -0.000000000000000000, -1.000000000000000000 ) ) ;
#187 = CARTESIAN_POINT ( 'NONE',  ( 25.39999999999999503, 38.10000000000000853, 0.000000000000000000 ) ) ;
#188 = PLANE ( 'NONE',  #227 ) ;
#189 = CARTESIAN_POINT ( 'NONE',  ( -25.40000000000000213, 38.10000000000000853, 0.000000000000000000 ) ) ;
#190 = CC_DESIGN_PERSON_AND_ORGANIZATION_ASSIGNMENT ( #39, #34, ( #74 ) ) ;
#191 = DIRECTION ( 'NONE',  ( 0.000000000000000000, -1.000000000000000000, 0.000000000000000000 ) ) ;
#192 = CARTESIAN_POINT ( 'NONE',  ( -25.39999999999999147, -38.09999999999999432, 0.1000000000000000056 ) ) ;
#193 = DIRECTION ( 'NONE',  ( 1.000000000000000000, 0.000000000000000000, 0.000000000000000000 ) ) ;
#194 = COORDINATED_UNIVERSAL_TIME_OFFSET ( 5, 0, .BEHIND. ) ;
#195 = DATE_TIME_ROLE ( 'classification_date' ) ;
#196 = VECTOR ( 'NONE', #147, 1000.000000000000000 ) ;
#197 =( GEOMETRIC_REPRESENTATION_CONTEXT ( 3 ) GLOBAL_UNCERTAINTY_ASSIGNED_CONTEXT ( ( #7 ) ) GLOBAL_UNIT_ASSIGNED_CONTEXT ( ( #111, #228, #235 ) ) REPRESENTATION_CONTEXT ( 'NONE', 'WORKASPACE' ) );
#198 = DATE_AND_TIME ( #159, #5 ) ;
#199 = APPROVAL_STATUS ( 'not_yet_approved' ) ;
#200 = DATE_AND_TIME ( #161, #88 ) ;
#201 = ORIENTED_EDGE ( 'NONE', *, *, #119, .T. ) ;
#202 = EDGE_CURVE ( 'NONE', #73, #41, #30, .T. ) ;
#203 = ORIENTED_EDGE ( 'NONE', *, *, #16, .F. ) ;
#204 = DIRECTION ( 'NONE',  ( -1.000000000000000000, -0.000000000000000000, -0.000000000000000000 ) ) ;
#205 = ORIENTED_EDGE ( 'NONE', *, *, #53, .T. ) ;
#206 = EDGE_LOOP ( 'NONE', ( #77, #126, #162, #203 ) ) ;
#207 = LINE ( 'NONE', #192, #209 ) ;
#208 = AXIS2_PLACEMENT_3D ( 'NONE', #110, #11, #92 ) ;
#209 = VECTOR ( 'NONE', #193, 1000.000000000000000 ) ;
#210 = DIRECTION ( 'NONE',  ( -1.365923996832131609E-16, 1.000000000000000000, -0.000000000000000000 ) ) ;
#211 = LOCAL_TIME ( 9, 47, 36.00000000000000000, #181 ) ;
#212 = CARTESIAN_POINT ( 'NONE',  ( 25.39999999999999503, 38.10000000000000853, 0.1000000000000000056 ) ) ;
#213 = LINE ( 'NONE', #153, #104 ) ;
#214 = PERSON_AND_ORGANIZATION ( #149, #1 ) ;
#215 = PERSON_AND_ORGANIZATION ( #149, #1 ) ;
#216 = APPROVAL_ROLE ( '' ) ;
#217 = VECTOR ( 'NONE', #48, 1000.000000000000000 ) ;
#218 = DATE_AND_TIME ( #97, #178 ) ;
#219 = CC_DESIGN_DATE_AND_TIME_ASSIGNMENT ( #143, #71, ( #120 ) ) ;
#220 = ORIENTED_EDGE ( 'NONE', *, *, #65, .T. ) ;
#221 = EDGE_CURVE ( 'NONE', #73, #58, #232, .T. ) ;
#222 = ORIENTED_EDGE ( 'NONE', *, *, #51, .F. ) ;
#223 = LINE ( 'NONE', #109, #144 ) ;
#224 = DIRECTION ( 'NONE',  ( 1.365923996832131609E-16, -1.000000000000000000, 0.000000000000000000 ) ) ;
#225 = VERTEX_POINT ( 'NONE', #130 ) ;
#226 = FACE_OUTER_BOUND ( 'NONE', #145, .T. ) ;
#227 = AXIS2_PLACEMENT_3D ( 'NONE', #62, #191, #230 ) ;
#228 =( NAMED_UNIT ( * ) PLANE_ANGLE_UNIT ( ) SI_UNIT ( $, .RADIAN. ) );
#229 = AXIS2_PLACEMENT_3D ( 'NONE', #36, #14, #68 ) ;
#230 = DIRECTION ( 'NONE',  ( 0.000000000000000000, -0.000000000000000000, -1.000000000000000000 ) ) ;
#231 = DIRECTION ( 'NONE',  ( 0.000000000000000000, -0.000000000000000000, 1.000000000000000000 ) ) ;
#232 = LINE ( 'NONE', #212, #217 ) ;
#233 = APPROVAL_ROLE ( '' ) ;
#234 = CC_DESIGN_PERSON_AND_ORGANIZATION_ASSIGNMENT ( #214, #160, ( #26 ) ) ;
#235 =( NAMED_UNIT ( * ) SI_UNIT ( $, .STERADIAN. ) SOLID_ANGLE_UNIT ( ) );
#236 = ORIENTED_EDGE ( 'NONE', *, *, #105, .F. ) ;
#237 = VECTOR ( 'NONE', #166, 1000.000000000000000 ) ;
ENDSEC;
END-ISO-10303-21;
