ISO-10303-21;
HEADER;
FILE_DESCRIPTION (( 'STEP AP203' ),
    '1' );
FILE_NAME ('Web Model 14955_18333.step',
    '2021-06-28T13:38:52',
    ( '' ),
    ( '' ),
    'SwSTEP 2.0',
    'SolidWorks 2018',
    '' );
FILE_SCHEMA (( 'CONFIG_CONTROL_DESIGN' ));
ENDSEC;

DATA;
#1 = CARTESIAN_POINT ( 'NONE',  ( 0.5000000000000000000, 0.000000000000000000, 2.499999999999998668 ) ) ;
#2 = AXIS2_PLACEMENT_3D ( 'NONE', #106, #121, #143 ) ;
#3 = CC_DESIGN_PERSON_AND_ORGANIZATION_ASSIGNMENT ( #113, #156, ( #15 ) ) ;
#4 = APPROVAL_STATUS ( 'not_yet_approved' ) ;
#5 = CALENDAR_DATE ( 2021, 28, 6 ) ;
#6 = CYLINDRICAL_SURFACE ( 'NONE', #51, 2.499999999999998668 ) ;
#7 = SECURITY_CLASSIFICATION_LEVEL ( 'unclassified' ) ;
#8 = DIRECTION ( 'NONE',  ( 0.000000000000000000, 0.000000000000000000, 1.000000000000000000 ) ) ;
#9 = COORDINATED_UNIVERSAL_TIME_OFFSET ( 5, 0, .BEHIND. ) ;
#10 = CC_DESIGN_PERSON_AND_ORGANIZATION_ASSIGNMENT ( #127, #96, ( #73 ) ) ;
#11 = ORGANIZATION ( 'UNSPECIFIED', 'UNSPECIFIED', '' ) ;
#12 = PLANE ( 'NONE',  #64 ) ;
#13 = CARTESIAN_POINT ( 'NONE',  ( -0.5000000000000000000, 3.061616997868381662E-16, -2.499999999999998668 ) ) ;
#14 = VERTEX_POINT ( 'NONE', #13 ) ;
#15 = PRODUCT_DEFINITION ( 'UNKNOWN', '', #73, #149 ) ;
#16 = PERSON_AND_ORGANIZATION ( #164, #11 ) ;
#17 = DIRECTION ( 'NONE',  ( 1.000000000000000000, 0.000000000000000000, 0.000000000000000000 ) ) ;
#18 = DIRECTION ( 'NONE',  ( 1.000000000000000000, 0.000000000000000000, 0.000000000000000000 ) ) ;
#19 = APPROVAL_ROLE ( '' ) ;
#20 = FACE_OUTER_BOUND ( 'NONE', #22, .T. ) ;
#21 = ADVANCED_FACE ( 'NONE', ( #79 ), #6, .T. ) ;
#22 = EDGE_LOOP ( 'NONE', ( #163, #129, #39, #120 ) ) ;
#23 = DIRECTION ( 'NONE',  ( -1.000000000000000000, -0.000000000000000000, -0.000000000000000000 ) ) ;
#24 = VERTEX_POINT ( 'NONE', #1 ) ;
#25 = PRODUCT_RELATED_PRODUCT_CATEGORY ( 'detail', '', ( #124 ) ) ;
#26 = DIRECTION ( 'NONE',  ( 0.000000000000000000, 0.000000000000000000, 1.000000000000000000 ) ) ;
#27 = AXIS2_PLACEMENT_3D ( 'NONE', #70, #128, #8 ) ;
#28 = PERSON_AND_ORGANIZATION ( #164, #11 ) ;
#29 = FACE_OUTER_BOUND ( 'NONE', #54, .T. ) ;
#30 = EDGE_CURVE ( 'NONE', #14, #88, #98, .T. ) ;
#31 =( LENGTH_UNIT ( ) NAMED_UNIT ( * ) SI_UNIT ( .MILLI., .METRE. ) );
#32 = AXIS2_PLACEMENT_3D ( 'NONE', #147, #41, #87 ) ;
#33 = DIRECTION ( 'NONE',  ( -1.000000000000000000, -0.000000000000000000, -0.000000000000000000 ) ) ;
#34 = CC_DESIGN_PERSON_AND_ORGANIZATION_ASSIGNMENT ( #155, #157, ( #124 ) ) ;
#35 = UNCERTAINTY_MEASURE_WITH_UNIT (LENGTH_MEASURE( 1.000000000000000082E-05 ), #31, 'distance_accuracy_value', 'NONE');
#36 = APPROVAL_PERSON_ORGANIZATION ( #76, #125, #44 ) ;
#37 = PRODUCT_DEFINITION_SHAPE ( 'NONE', 'NONE',  #15 ) ;
#38 = AXIS2_PLACEMENT_3D ( 'NONE', #56, #26, #60 ) ;
#39 = ORIENTED_EDGE ( 'NONE', *, *, #151, .T. ) ;
#40 = SHAPE_DEFINITION_REPRESENTATION ( #37, #92 ) ;
#41 = DIRECTION ( 'NONE',  ( 1.000000000000000000, 0.000000000000000000, 0.000000000000000000 ) ) ;
#42 = LOCAL_TIME ( 9, 38, 52.00000000000000000, #9 ) ;
#43 = CC_DESIGN_PERSON_AND_ORGANIZATION_ASSIGNMENT ( #131, #102, ( #130 ) ) ;
#44 = APPROVAL_ROLE ( '' ) ;
#45 = COORDINATED_UNIVERSAL_TIME_OFFSET ( 5, 0, .BEHIND. ) ;
#46 = APPLICATION_CONTEXT ( 'configuration controlled 3d designs of mechanical parts and assemblies' ) ;
#47 = DIRECTION ( 'NONE',  ( 1.000000000000000000, 0.000000000000000000, 0.000000000000000000 ) ) ;
#48 = LINE ( 'NONE', #137, #150 ) ;
#49 = CARTESIAN_POINT ( 'NONE',  ( 0.5000000000000000000, 3.061616997868381662E-16, -2.499999999999998668 ) ) ;
#50 = CIRCLE ( 'NONE', #69, 2.499999999999998668 ) ;
#51 = AXIS2_PLACEMENT_3D ( 'NONE', #67, #23, #136 ) ;
#52 = FACE_OUTER_BOUND ( 'NONE', #91, .T. ) ;
#53 = LOCAL_TIME ( 9, 38, 52.00000000000000000, #107 ) ;
#54 = EDGE_LOOP ( 'NONE', ( #134, #84 ) ) ;
#55 = AXIS2_PLACEMENT_3D ( 'NONE', #175, #17, #142 ) ;
#56 = CARTESIAN_POINT ( 'NONE',  ( 0.000000000000000000, 0.000000000000000000, 0.000000000000000000 ) ) ;
#57 = DATE_AND_TIME ( #77, #115 ) ;
#58 = ORIENTED_EDGE ( 'NONE', *, *, #30, .T. ) ;
#59 = PERSON_AND_ORGANIZATION ( #164, #11 ) ;
#60 = DIRECTION ( 'NONE',  ( 1.000000000000000000, 0.000000000000000000, 0.000000000000000000 ) ) ;
#61 = PLANE ( 'NONE',  #55 ) ;
#62 = DATE_TIME_ROLE ( 'creation_date' ) ;
#63 = COORDINATED_UNIVERSAL_TIME_OFFSET ( 5, 0, .BEHIND. ) ;
#64 = AXIS2_PLACEMENT_3D ( 'NONE', #153, #18, #146 ) ;
#65 = CC_DESIGN_APPROVAL ( #125, ( #15 ) ) ;
#66 = CIRCLE ( 'NONE', #105, 2.499999999999998668 ) ;
#67 = CARTESIAN_POINT ( 'NONE',  ( 0.5000000000000000000, 0.000000000000000000, 0.000000000000000000 ) ) ;
#68 = APPROVAL_DATE_TIME ( #57, #95 ) ;
#69 = AXIS2_PLACEMENT_3D ( 'NONE', #117, #47, #75 ) ;
#70 = CARTESIAN_POINT ( 'NONE',  ( 0.5000000000000000000, 0.000000000000000000, 0.000000000000000000 ) ) ;
#71 = CARTESIAN_POINT ( 'NONE',  ( 0.5000000000000000000, 0.000000000000000000, 2.499999999999998668 ) ) ;
#72 = DATE_AND_TIME ( #93, #53 ) ;
#73 = PRODUCT_DEFINITION_FORMATION_WITH_SPECIFIED_SOURCE ( 'ANY', '', #124, .NOT_KNOWN. ) ;
#74 = APPROVAL_STATUS ( 'not_yet_approved' ) ;
#75 = DIRECTION ( 'NONE',  ( 0.000000000000000000, 0.000000000000000000, -1.000000000000000000 ) ) ;
#76 = PERSON_AND_ORGANIZATION ( #164, #11 ) ;
#77 = CALENDAR_DATE ( 2021, 28, 6 ) ;
#78 = ADVANCED_FACE ( 'NONE', ( #29 ), #12, .F. ) ;
#79 = FACE_OUTER_BOUND ( 'NONE', #158, .T. ) ;
#80 = CC_DESIGN_APPROVAL ( #95, ( #130 ) ) ;
#81 = ORIENTED_EDGE ( 'NONE', *, *, #154, .F. ) ;
#82 = MECHANICAL_CONTEXT ( 'NONE', #46, 'mechanical' ) ;
#83 = MANIFOLD_SOLID_BREP ( 'Boss-Extrude1', #104 ) ;
#84 = ORIENTED_EDGE ( 'NONE', *, *, #30, .F. ) ;
#85 = COORDINATED_UNIVERSAL_TIME_OFFSET ( 5, 0, .BEHIND. ) ;
#86 = PERSON_AND_ORGANIZATION_ROLE ( 'design_supplier' ) ;
#87 = DIRECTION ( 'NONE',  ( 0.000000000000000000, 0.000000000000000000, -1.000000000000000000 ) ) ;
#88 = VERTEX_POINT ( 'NONE', #123 ) ;
#89 = APPROVAL_PERSON_ORGANIZATION ( #16, #95, #19 ) ;
#90 = APPLICATION_CONTEXT ( 'configuration controlled 3d designs of mechanical parts and assemblies' ) ;
#91 = EDGE_LOOP ( 'NONE', ( #161, #145 ) ) ;
#92 = ADVANCED_BREP_SHAPE_REPRESENTATION ( 'Web Model 14955_18333', ( #83, #38 ), #111 ) ;
#93 = CALENDAR_DATE ( 2021, 28, 6 ) ;
#94 = DATE_AND_TIME ( #101, #144 ) ;
#95 = APPROVAL ( #116, 'UNSPECIFIED' ) ;
#96 = PERSON_AND_ORGANIZATION_ROLE ( 'creator' ) ;
#97 =( NAMED_UNIT ( * ) PLANE_ANGLE_UNIT ( ) SI_UNIT ( $, .RADIAN. ) );
#98 = CIRCLE ( 'NONE', #2, 2.499999999999998668 ) ;
#99 = DATE_TIME_ROLE ( 'classification_date' ) ;
#100 = APPLICATION_PROTOCOL_DEFINITION ( 'international standard', 'config_control_design', 1994, #90 ) ;
#101 = CALENDAR_DATE ( 2021, 28, 6 ) ;
#102 = PERSON_AND_ORGANIZATION_ROLE ( 'classification_officer' ) ;
#103 = EDGE_CURVE ( 'NONE', #140, #14, #48, .T. ) ;
#104 = CLOSED_SHELL ( 'NONE', ( #21, #166, #165, #78 ) ) ;
#105 = AXIS2_PLACEMENT_3D ( 'NONE', #159, #112, #119 ) ;
#106 = CARTESIAN_POINT ( 'NONE',  ( -0.5000000000000000000, 0.000000000000000000, 0.000000000000000000 ) ) ;
#107 = COORDINATED_UNIVERSAL_TIME_OFFSET ( 5, 0, .BEHIND. ) ;
#108 = CC_DESIGN_DATE_AND_TIME_ASSIGNMENT ( #110, #62, ( #15 ) ) ;
#109 = CYLINDRICAL_SURFACE ( 'NONE', #27, 2.499999999999998668 ) ;
#110 = DATE_AND_TIME ( #135, #139 ) ;
#111 =( GEOMETRIC_REPRESENTATION_CONTEXT ( 3 ) GLOBAL_UNCERTAINTY_ASSIGNED_CONTEXT ( ( #35 ) ) GLOBAL_UNIT_ASSIGNED_CONTEXT ( ( #31, #97, #173 ) ) REPRESENTATION_CONTEXT ( 'NONE', 'WORKASPACE' ) );
#112 = DIRECTION ( 'NONE',  ( 1.000000000000000000, 0.000000000000000000, 0.000000000000000000 ) ) ;
#113 = PERSON_AND_ORGANIZATION ( #164, #11 ) ;
#114 = CC_DESIGN_APPROVAL ( #138, ( #73 ) ) ;
#115 = LOCAL_TIME ( 9, 38, 52.00000000000000000, #85 ) ;
#116 = APPROVAL_STATUS ( 'not_yet_approved' ) ;
#117 = CARTESIAN_POINT ( 'NONE',  ( 0.5000000000000000000, 0.000000000000000000, 0.000000000000000000 ) ) ;
#118 = CIRCLE ( 'NONE', #32, 2.499999999999998668 ) ;
#119 = DIRECTION ( 'NONE',  ( 0.000000000000000000, 0.000000000000000000, -1.000000000000000000 ) ) ;
#120 = ORIENTED_EDGE ( 'NONE', *, *, #160, .T. ) ;
#121 = DIRECTION ( 'NONE',  ( 1.000000000000000000, 0.000000000000000000, 0.000000000000000000 ) ) ;
#122 = VECTOR ( 'NONE', #174, 1000.000000000000000 ) ;
#123 = CARTESIAN_POINT ( 'NONE',  ( -0.5000000000000000000, 0.000000000000000000, 2.499999999999998668 ) ) ;
#124 = PRODUCT ( 'Web Model 14955_18333', 'Web Model 14955_18333', '', ( #82 ) ) ;
#125 = APPROVAL ( #4, 'UNSPECIFIED' ) ;
#126 = ORIENTED_EDGE ( 'NONE', *, *, #103, .T. ) ;
#127 = PERSON_AND_ORGANIZATION ( #164, #11 ) ;
#128 = DIRECTION ( 'NONE',  ( -1.000000000000000000, -0.000000000000000000, -0.000000000000000000 ) ) ;
#129 = ORIENTED_EDGE ( 'NONE', *, *, #132, .F. ) ;
#130 = SECURITY_CLASSIFICATION ( '', '', #7 ) ;
#131 = PERSON_AND_ORGANIZATION ( #164, #11 ) ;
#132 = EDGE_CURVE ( 'NONE', #24, #140, #118, .T. ) ;
#133 = CC_DESIGN_DATE_AND_TIME_ASSIGNMENT ( #72, #99, ( #130 ) ) ;
#134 = ORIENTED_EDGE ( 'NONE', *, *, #160, .F. ) ;
#135 = CALENDAR_DATE ( 2021, 28, 6 ) ;
#136 = DIRECTION ( 'NONE',  ( 0.000000000000000000, 0.000000000000000000, 1.000000000000000000 ) ) ;
#137 = CARTESIAN_POINT ( 'NONE',  ( 0.5000000000000000000, 3.061616997868381662E-16, -2.499999999999998668 ) ) ;
#138 = APPROVAL ( #74, 'UNSPECIFIED' ) ;
#139 = LOCAL_TIME ( 9, 38, 52.00000000000000000, #63 ) ;
#140 = VERTEX_POINT ( 'NONE', #49 ) ;
#141 = APPROVAL_PERSON_ORGANIZATION ( #28, #138, #170 ) ;
#142 = DIRECTION ( 'NONE',  ( 0.000000000000000000, 0.000000000000000000, -1.000000000000000000 ) ) ;
#143 = DIRECTION ( 'NONE',  ( 0.000000000000000000, 0.000000000000000000, -1.000000000000000000 ) ) ;
#144 = LOCAL_TIME ( 9, 38, 52.00000000000000000, #45 ) ;
#145 = ORIENTED_EDGE ( 'NONE', *, *, #154, .T. ) ;
#146 = DIRECTION ( 'NONE',  ( 0.000000000000000000, 0.000000000000000000, -1.000000000000000000 ) ) ;
#147 = CARTESIAN_POINT ( 'NONE',  ( 0.5000000000000000000, 0.000000000000000000, 0.000000000000000000 ) ) ;
#148 = DATE_AND_TIME ( #5, #42 ) ;
#149 = DESIGN_CONTEXT ( 'detailed design', #90, 'design' ) ;
#150 = VECTOR ( 'NONE', #33, 1000.000000000000000 ) ;
#151 = EDGE_CURVE ( 'NONE', #24, #88, #171, .T. ) ;
#152 = APPROVAL_DATE_TIME ( #148, #125 ) ;
#153 = CARTESIAN_POINT ( 'NONE',  ( -0.5000000000000000000, 0.000000000000000000, 0.000000000000000000 ) ) ;
#154 = EDGE_CURVE ( 'NONE', #140, #24, #50, .T. ) ;
#155 = PERSON_AND_ORGANIZATION ( #164, #11 ) ;
#156 = PERSON_AND_ORGANIZATION_ROLE ( 'creator' ) ;
#157 = PERSON_AND_ORGANIZATION_ROLE ( 'design_owner' ) ;
#158 = EDGE_LOOP ( 'NONE', ( #81, #126, #58, #169 ) ) ;
#159 = CARTESIAN_POINT ( 'NONE',  ( -0.5000000000000000000, 0.000000000000000000, 0.000000000000000000 ) ) ;
#160 = EDGE_CURVE ( 'NONE', #88, #14, #66, .T. ) ;
#161 = ORIENTED_EDGE ( 'NONE', *, *, #132, .T. ) ;
#162 = CC_DESIGN_PERSON_AND_ORGANIZATION_ASSIGNMENT ( #59, #86, ( #73 ) ) ;
#163 = ORIENTED_EDGE ( 'NONE', *, *, #103, .F. ) ;
#164 = PERSON ( 'UNSPECIFIED', 'UNSPECIFIED', 'UNSPECIFIED', ('UNSPECIFIED'), ('UNSPECIFIED'), ('UNSPECIFIED') ) ;
#165 = ADVANCED_FACE ( 'NONE', ( #52 ), #61, .T. ) ;
#166 = ADVANCED_FACE ( 'NONE', ( #20 ), #109, .T. ) ;
#167 = APPROVAL_DATE_TIME ( #94, #138 ) ;
#168 = APPLICATION_PROTOCOL_DEFINITION ( 'international standard', 'config_control_design', 1994, #46 ) ;
#169 = ORIENTED_EDGE ( 'NONE', *, *, #151, .F. ) ;
#170 = APPROVAL_ROLE ( '' ) ;
#171 = LINE ( 'NONE', #71, #122 ) ;
#172 = CC_DESIGN_SECURITY_CLASSIFICATION ( #130, ( #73 ) ) ;
#173 =( NAMED_UNIT ( * ) SI_UNIT ( $, .STERADIAN. ) SOLID_ANGLE_UNIT ( ) );
#174 = DIRECTION ( 'NONE',  ( -1.000000000000000000, -0.000000000000000000, -0.000000000000000000 ) ) ;
#175 = CARTESIAN_POINT ( 'NONE',  ( 0.5000000000000000000, 0.000000000000000000, 0.000000000000000000 ) ) ;
ENDSEC;
END-ISO-10303-21;
