ISO-10303-21;
HEADER;
FILE_DESCRIPTION (( 'STEP AP203' ),
    '1' );
FILE_NAME ('Web Model 46702_31435.step',
    '2017-04-10T17:42:32',
    ( '' ),
    ( '' ),
    'SwSTEP 2.0',
    'SolidWorks 2016',
    '' );
FILE_SCHEMA (( 'CONFIG_CONTROL_DESIGN' ));
ENDSEC;

DATA;
#1 = PERSON_AND_ORGANIZATION ( #221, #205 ) ;
#2 = AXIS2_PLACEMENT_3D ( 'NONE', #211, #54, #184 ) ;
#3 = CC_DESIGN_PERSON_AND_ORGANIZATION_ASSIGNMENT ( #23, #105, ( #156 ) ) ;
#4 = LINE ( 'NONE', #154, #236 ) ;
#5 = CARTESIAN_POINT ( 'NONE',  ( -12.50000000000000000, 18.99999999999999600, 3.000000000000000000 ) ) ;
#6 = CC_DESIGN_APPROVAL ( #70, ( #99 ) ) ;
#7 =( GEOMETRIC_REPRESENTATION_CONTEXT ( 3 ) GLOBAL_UNCERTAINTY_ASSIGNED_CONTEXT ( ( #52 ) ) GLOBAL_UNIT_ASSIGNED_CONTEXT ( ( #206, #138, #216 ) ) REPRESENTATION_CONTEXT ( 'NONE', 'WORKASPACE' ) );
#8 = DIRECTION ( 'NONE',  ( -0.0000000000000000000, -0.0000000000000000000, -1.000000000000000000 ) ) ;
#9 = ORIENTED_EDGE ( 'NONE', *, *, #124, .F. ) ;
#10 = VECTOR ( 'NONE', #29, 1000.000000000000000 ) ;
#11 = DIRECTION ( 'NONE',  ( 0.0000000000000000000, -0.0000000000000000000, 1.000000000000000000 ) ) ;
#12 = CARTESIAN_POINT ( 'NONE',  ( -12.50000000000000000, 18.99999999999999600, 3.000000000000000000 ) ) ;
#13 = LOCAL_TIME ( 13, 42, 32.00000000000000000, #45 ) ;
#14 = PERSON_AND_ORGANIZATION ( #221, #205 ) ;
#15 = DIRECTION ( 'NONE',  ( -1.000000000000000000, -0.0000000000000000000, -0.0000000000000000000 ) ) ;
#16 = EDGE_CURVE ( 'NONE', #67, #64, #46, .T. ) ;
#17 = SHAPE_DEFINITION_REPRESENTATION ( #139, #87 ) ;
#18 = CARTESIAN_POINT ( 'NONE',  ( -12.50000000000000000, 18.99999999999999600, 0.0000000000000000000 ) ) ;
#19 = CALENDAR_DATE ( 2017, 10, 4 ) ;
#20 = EDGE_CURVE ( 'NONE', #24, #218, #217, .T. ) ;
#21 = CARTESIAN_POINT ( 'NONE',  ( 12.49999999999999800, 18.99999999999999600, 3.000000000000000000 ) ) ;
#22 = PERSON_AND_ORGANIZATION_ROLE ( 'design_owner' ) ;
#23 = PERSON_AND_ORGANIZATION ( #221, #205 ) ;
#24 = VERTEX_POINT ( 'NONE', #159 ) ;
#25 = DIRECTION ( 'NONE',  ( -1.369518533665900300E-016, 1.000000000000000000, -0.0000000000000000000 ) ) ;
#26 = EDGE_CURVE ( 'NONE', #218, #179, #173, .T. ) ;
#27 = LOCAL_TIME ( 13, 42, 32.00000000000000000, #33 ) ;
#28 = LINE ( 'NONE', #196, #160 ) ;
#29 = DIRECTION ( 'NONE',  ( -0.0000000000000000000, -0.0000000000000000000, -1.000000000000000000 ) ) ;
#30 = APPLICATION_PROTOCOL_DEFINITION ( 'international standard', 'config_control_design', 1994, #74 ) ;
#31 = DIRECTION ( 'NONE',  ( 0.0000000000000000000, -0.0000000000000000000, -1.000000000000000000 ) ) ;
#32 = CALENDAR_DATE ( 2017, 10, 4 ) ;
#33 = COORDINATED_UNIVERSAL_TIME_OFFSET ( 5, 0, .BEHIND. ) ;
#34 = ORIENTED_EDGE ( 'NONE', *, *, #16, .F. ) ;
#35 = ADVANCED_FACE ( 'NONE', ( #72 ), #86, .F. ) ;
#36 = APPROVAL_PERSON_ORGANIZATION ( #94, #62, #88 ) ;
#37 = CLOSED_SHELL ( 'NONE', ( #128, #120, #35, #161, #59, #155 ) ) ;
#38 = LINE ( 'NONE', #100, #107 ) ;
#39 = CC_DESIGN_APPROVAL ( #110, ( #156 ) ) ;
#40 = APPROVAL_DATE_TIME ( #76, #110 ) ;
#41 = SECURITY_CLASSIFICATION_LEVEL ( 'unclassified' ) ;
#42 = MANIFOLD_SOLID_BREP ( 'Extrude1', #37 ) ;
#43 = ORIENTED_EDGE ( 'NONE', *, *, #26, .T. ) ;
#44 = CARTESIAN_POINT ( 'NONE',  ( 12.49999999999999800, 18.99999999999999600, 3.000000000000000000 ) ) ;
#45 = COORDINATED_UNIVERSAL_TIME_OFFSET ( 5, 0, .BEHIND. ) ;
#46 = LINE ( 'NONE', #119, #174 ) ;
#47 = VECTOR ( 'NONE', #15, 1000.000000000000000 ) ;
#48 = CARTESIAN_POINT ( 'NONE',  ( -12.49999999999999600, -19.00000000000000400, 0.0000000000000000000 ) ) ;
#49 = ORIENTED_EDGE ( 'NONE', *, *, #168, .F. ) ;
#50 = LINE ( 'NONE', #91, #81 ) ;
#51 = CARTESIAN_POINT ( 'NONE',  ( -12.49999999999999600, -19.00000000000000400, 3.000000000000000000 ) ) ;
#52 = UNCERTAINTY_MEASURE_WITH_UNIT (LENGTH_MEASURE( 1.000000000000000100E-005 ), #206, 'distance_accuracy_value', 'NONE');
#53 = PLANE ( 'NONE',  #145 ) ;
#54 = DIRECTION ( 'NONE',  ( -0.0000000000000000000, 0.0000000000000000000, 1.000000000000000000 ) ) ;
#55 = COORDINATED_UNIVERSAL_TIME_OFFSET ( 5, 0, .BEHIND. ) ;
#56 = FACE_OUTER_BOUND ( 'NONE', #198, .T. ) ;
#57 = PERSON_AND_ORGANIZATION ( #221, #205 ) ;
#58 = ORIENTED_EDGE ( 'NONE', *, *, #26, .F. ) ;
#59 = ADVANCED_FACE ( 'NONE', ( #82 ), #53, .T. ) ;
#60 = DATE_AND_TIME ( #232, #96 ) ;
#61 = DIRECTION ( 'NONE',  ( -0.0000000000000000000, 0.0000000000000000000, 1.000000000000000000 ) ) ;
#62 = APPROVAL ( #68, 'UNSPECIFIED' ) ;
#63 = LINE ( 'NONE', #12, #47 ) ;
#64 = VERTEX_POINT ( 'NONE', #18 ) ;
#65 = CARTESIAN_POINT ( 'NONE',  ( 12.49999999999999800, 18.99999999999999600, 0.0000000000000000000 ) ) ;
#66 = DATE_AND_TIME ( #32, #189 ) ;
#67 = VERTEX_POINT ( 'NONE', #83 ) ;
#68 = APPROVAL_STATUS ( 'not_yet_approved' ) ;
#69 = PERSON_AND_ORGANIZATION_ROLE ( 'creator' ) ;
#70 = APPROVAL ( #199, 'UNSPECIFIED' ) ;
#71 = DIRECTION ( 'NONE',  ( -0.0000000000000000000, -0.0000000000000000000, -1.000000000000000000 ) ) ;
#72 = FACE_OUTER_BOUND ( 'NONE', #226, .T. ) ;
#73 = VERTEX_POINT ( 'NONE', #129 ) ;
#74 = APPLICATION_CONTEXT ( 'configuration controlled 3d designs of mechanical parts and assemblies' ) ;
#75 = CALENDAR_DATE ( 2017, 10, 4 ) ;
#76 = DATE_AND_TIME ( #75, #143 ) ;
#77 = CARTESIAN_POINT ( 'NONE',  ( 12.49999999999999800, 18.99999999999999600, 3.000000000000000000 ) ) ;
#78 = EDGE_CURVE ( 'NONE', #219, #64, #192, .T. ) ;
#79 = ORIENTED_EDGE ( 'NONE', *, *, #180, .F. ) ;
#80 = VECTOR ( 'NONE', #97, 1000.000000000000000 ) ;
#81 = VECTOR ( 'NONE', #178, 1000.000000000000000 ) ;
#82 = FACE_OUTER_BOUND ( 'NONE', #152, .T. ) ;
#83 = CARTESIAN_POINT ( 'NONE',  ( 12.49999999999999800, 18.99999999999999600, 0.0000000000000000000 ) ) ;
#84 = CC_DESIGN_APPROVAL ( #62, ( #121 ) ) ;
#85 = ORIENTED_EDGE ( 'NONE', *, *, #234, .F. ) ;
#86 = PLANE ( 'NONE',  #109 ) ;
#87 = ADVANCED_BREP_SHAPE_REPRESENTATION ( 'Web Model 46702_31435', ( #42, #197 ), #7 ) ;
#88 = APPROVAL_ROLE ( '' ) ;
#89 = PERSON_AND_ORGANIZATION ( #221, #205 ) ;
#90 = PERSON_AND_ORGANIZATION ( #221, #205 ) ;
#91 = CARTESIAN_POINT ( 'NONE',  ( -12.49999999999999600, -19.00000000000000400, 3.000000000000000000 ) ) ;
#92 = DATE_TIME_ROLE ( 'creation_date' ) ;
#93 = ORIENTED_EDGE ( 'NONE', *, *, #78, .F. ) ;
#94 = PERSON_AND_ORGANIZATION ( #221, #205 ) ;
#95 = DIRECTION ( 'NONE',  ( 1.000000000000000000, 9.130123557772669600E-017, -0.0000000000000000000 ) ) ;
#96 = LOCAL_TIME ( 13, 42, 32.00000000000000000, #104 ) ;
#97 = DIRECTION ( 'NONE',  ( -0.0000000000000000000, -0.0000000000000000000, -1.000000000000000000 ) ) ;
#98 = DIRECTION ( 'NONE',  ( -9.130123557772669600E-017, 1.000000000000000000, 0.0000000000000000000 ) ) ;
#99 = PRODUCT_DEFINITION_FORMATION_WITH_SPECIFIED_SOURCE ( 'ANY', '', #182, .NOT_KNOWN. ) ;
#100 = CARTESIAN_POINT ( 'NONE',  ( -12.50000000000000000, 18.99999999999999600, 0.0000000000000000000 ) ) ;
#101 = CC_DESIGN_DATE_AND_TIME_ASSIGNMENT ( #191, #92, ( #121 ) ) ;
#102 = ORIENTED_EDGE ( 'NONE', *, *, #180, .T. ) ;
#103 = CC_DESIGN_PERSON_AND_ORGANIZATION_ASSIGNMENT ( #89, #153, ( #99 ) ) ;
#104 = COORDINATED_UNIVERSAL_TIME_OFFSET ( 5, 0, .BEHIND. ) ;
#105 = PERSON_AND_ORGANIZATION_ROLE ( 'classification_officer' ) ;
#106 = ORIENTED_EDGE ( 'NONE', *, *, #234, .T. ) ;
#107 = VECTOR ( 'NONE', #213, 1000.000000000000000 ) ;
#108 = ORIENTED_EDGE ( 'NONE', *, *, #168, .T. ) ;
#109 = AXIS2_PLACEMENT_3D ( 'NONE', #169, #95, #98 ) ;
#110 = APPROVAL ( #114, 'UNSPECIFIED' ) ;
#111 = APPLICATION_CONTEXT ( 'configuration controlled 3d designs of mechanical parts and assemblies' ) ;
#112 = AXIS2_PLACEMENT_3D ( 'NONE', #225, #188, #11 ) ;
#113 = ORIENTED_EDGE ( 'NONE', *, *, #20, .F. ) ;
#114 = APPROVAL_STATUS ( 'not_yet_approved' ) ;
#115 = APPROVAL_ROLE ( '' ) ;
#116 = APPROVAL_PERSON_ORGANIZATION ( #90, #110, #115 ) ;
#117 = MECHANICAL_CONTEXT ( 'NONE', #111, 'mechanical' ) ;
#118 = CARTESIAN_POINT ( 'NONE',  ( -12.49999999999999600, -19.00000000000000400, 0.0000000000000000000 ) ) ;
#119 = CARTESIAN_POINT ( 'NONE',  ( -12.50000000000000000, 18.99999999999999600, 0.0000000000000000000 ) ) ;
#120 = ADVANCED_FACE ( 'NONE', ( #142 ), #193, .F. ) ;
#121 = PRODUCT_DEFINITION ( 'UNKNOWN', '', #99, #171 ) ;
#122 = LINE ( 'NONE', #141, #165 ) ;
#123 = ORIENTED_EDGE ( 'NONE', *, *, #162, .T. ) ;
#124 = EDGE_CURVE ( 'NONE', #73, #179, #122, .T. ) ;
#125 = PERSON_AND_ORGANIZATION_ROLE ( 'creator' ) ;
#126 = DIRECTION ( 'NONE',  ( -1.000000000000000000, -1.369518533665900100E-016, 0.0000000000000000000 ) ) ;
#127 = CARTESIAN_POINT ( 'NONE',  ( 12.50000000000000400, -19.00000000000000400, 3.000000000000000000 ) ) ;
#128 = ADVANCED_FACE ( 'NONE', ( #56 ), #137, .F. ) ;
#129 = CARTESIAN_POINT ( 'NONE',  ( 12.50000000000000400, -19.00000000000000400, 3.000000000000000000 ) ) ;
#130 = FACE_OUTER_BOUND ( 'NONE', #183, .T. ) ;
#131 = VECTOR ( 'NONE', #25, 1000.000000000000000 ) ;
#132 = ORIENTED_EDGE ( 'NONE', *, *, #207, .T. ) ;
#133 = ORIENTED_EDGE ( 'NONE', *, *, #78, .T. ) ;
#134 = DIRECTION ( 'NONE',  ( -1.369518533665900300E-016, 1.000000000000000000, -0.0000000000000000000 ) ) ;
#135 = PERSON_AND_ORGANIZATION ( #221, #205 ) ;
#136 = DIRECTION ( 'NONE',  ( 9.130123557772669600E-017, -1.000000000000000000, 0.0000000000000000000 ) ) ;
#137 = PLANE ( 'NONE',  #220 ) ;
#138 =( NAMED_UNIT ( * ) PLANE_ANGLE_UNIT ( ) SI_UNIT ( $, .RADIAN. ) );
#139 = PRODUCT_DEFINITION_SHAPE ( 'NONE', 'NONE',  #121 ) ;
#140 = ORIENTED_EDGE ( 'NONE', *, *, #20, .T. ) ;
#141 = CARTESIAN_POINT ( 'NONE',  ( 12.50000000000000400, -19.00000000000000400, 3.000000000000000000 ) ) ;
#142 = FACE_OUTER_BOUND ( 'NONE', #224, .T. ) ;
#143 = LOCAL_TIME ( 13, 42, 32.00000000000000000, #235 ) ;
#144 = APPROVAL_ROLE ( '' ) ;
#145 = AXIS2_PLACEMENT_3D ( 'NONE', #127, #61, #163 ) ;
#146 = VERTEX_POINT ( 'NONE', #44 ) ;
#147 = CARTESIAN_POINT ( 'NONE',  ( 0.0000000000000000000, 0.0000000000000000000, 0.0000000000000000000 ) ) ;
#148 = APPROVAL_PERSON_ORGANIZATION ( #57, #70, #144 ) ;
#149 = ORIENTED_EDGE ( 'NONE', *, *, #228, .T. ) ;
#150 = EDGE_CURVE ( 'NONE', #219, #24, #28, .T. ) ;
#151 = DATE_TIME_ROLE ( 'classification_date' ) ;
#152 = EDGE_LOOP ( 'NONE', ( #106, #149, #210, #123 ) ) ;
#153 = PERSON_AND_ORGANIZATION_ROLE ( 'design_supplier' ) ;
#154 = CARTESIAN_POINT ( 'NONE',  ( 12.49999999999999800, 18.99999999999999600, 3.000000000000000000 ) ) ;
#155 = ADVANCED_FACE ( 'NONE', ( #130 ), #170, .F. ) ;
#156 = SECURITY_CLASSIFICATION ( '', '', #41 ) ;
#157 = APPROVAL_DATE_TIME ( #60, #62 ) ;
#158 = DIRECTION ( 'NONE',  ( 1.000000000000000000, 0.0000000000000000000, 0.0000000000000000000 ) ) ;
#159 = CARTESIAN_POINT ( 'NONE',  ( -12.49999999999999600, -19.00000000000000400, 3.000000000000000000 ) ) ;
#160 = VECTOR ( 'NONE', #136, 1000.000000000000000 ) ;
#161 = ADVANCED_FACE ( 'NONE', ( #222 ), #176, .F. ) ;
#162 = EDGE_CURVE ( 'NONE', #24, #73, #50, .T. ) ;
#163 = DIRECTION ( 'NONE',  ( 1.000000000000000000, 0.0000000000000000000, 0.0000000000000000000 ) ) ;
#164 = VECTOR ( 'NONE', #158, 1000.000000000000000 ) ;
#165 = VECTOR ( 'NONE', #71, 1000.000000000000000 ) ;
#166 = DIRECTION ( 'NONE',  ( 0.0000000000000000000, 0.0000000000000000000, 1.000000000000000000 ) ) ;
#167 = EDGE_LOOP ( 'NONE', ( #43, #9, #172, #140 ) ) ;
#168 = EDGE_CURVE ( 'NONE', #146, #67, #4, .T. ) ;
#169 = CARTESIAN_POINT ( 'NONE',  ( -12.50000000000000000, 18.99999999999999600, 3.000000000000000000 ) ) ;
#170 = PLANE ( 'NONE',  #2 ) ;
#171 = DESIGN_CONTEXT ( 'detailed design', #74, 'design' ) ;
#172 = ORIENTED_EDGE ( 'NONE', *, *, #162, .F. ) ;
#173 = LINE ( 'NONE', #48, #164 ) ;
#174 = VECTOR ( 'NONE', #212, 1000.000000000000000 ) ;
#175 = ORIENTED_EDGE ( 'NONE', *, *, #228, .F. ) ;
#176 = PLANE ( 'NONE',  #112 ) ;
#177 = CARTESIAN_POINT ( 'NONE',  ( 12.50000000000000400, -19.00000000000000400, 0.0000000000000000000 ) ) ;
#178 = DIRECTION ( 'NONE',  ( 1.000000000000000000, 0.0000000000000000000, 0.0000000000000000000 ) ) ;
#179 = VERTEX_POINT ( 'NONE', #177 ) ;
#180 = EDGE_CURVE ( 'NONE', #179, #67, #195, .T. ) ;
#181 = CC_DESIGN_PERSON_AND_ORGANIZATION_ASSIGNMENT ( #1, #125, ( #99 ) ) ;
#182 = PRODUCT ( 'Web Model 46702_31435', 'Web Model 46702_31435', '', ( #117 ) ) ;
#183 = EDGE_LOOP ( 'NONE', ( #79, #58, #227, #34 ) ) ;
#184 = DIRECTION ( 'NONE',  ( 1.000000000000000000, 0.0000000000000000000, 0.0000000000000000000 ) ) ;
#185 = VECTOR ( 'NONE', #134, 1000.000000000000000 ) ;
#186 = ORIENTED_EDGE ( 'NONE', *, *, #150, .F. ) ;
#187 = APPROVAL_DATE_TIME ( #200, #70 ) ;
#188 = DIRECTION ( 'NONE',  ( 0.0000000000000000000, 1.000000000000000000, 0.0000000000000000000 ) ) ;
#189 = LOCAL_TIME ( 13, 42, 32.00000000000000000, #55 ) ;
#190 = APPLICATION_PROTOCOL_DEFINITION ( 'international standard', 'config_control_design', 1994, #111 ) ;
#191 = DATE_AND_TIME ( #19, #13 ) ;
#192 = LINE ( 'NONE', #231, #10 ) ;
#193 = PLANE ( 'NONE',  #237 ) ;
#194 = DIRECTION ( 'NONE',  ( 1.000000000000000000, 0.0000000000000000000, 0.0000000000000000000 ) ) ;
#195 = LINE ( 'NONE', #65, #131 ) ;
#196 = CARTESIAN_POINT ( 'NONE',  ( -12.50000000000000000, 18.99999999999999600, 3.000000000000000000 ) ) ;
#197 = AXIS2_PLACEMENT_3D ( 'NONE', #147, #166, #194 ) ;
#198 = EDGE_LOOP ( 'NONE', ( #102, #49, #85, #201 ) ) ;
#199 = APPROVAL_STATUS ( 'not_yet_approved' ) ;
#200 = DATE_AND_TIME ( #202, #27 ) ;
#201 = ORIENTED_EDGE ( 'NONE', *, *, #124, .T. ) ;
#202 = CALENDAR_DATE ( 2017, 10, 4 ) ;
#203 = CC_DESIGN_PERSON_AND_ORGANIZATION_ASSIGNMENT ( #14, #69, ( #121 ) ) ;
#204 = PRODUCT_RELATED_PRODUCT_CATEGORY ( 'detail', '', ( #182 ) ) ;
#205 = ORGANIZATION ( 'UNSPECIFIED', 'UNSPECIFIED', '' ) ;
#206 =( LENGTH_UNIT ( ) NAMED_UNIT ( * ) SI_UNIT ( .MILLI., .METRE. ) );
#207 = EDGE_CURVE ( 'NONE', #64, #218, #38, .T. ) ;
#208 = DIRECTION ( 'NONE',  ( 0.0000000000000000000, -1.000000000000000000, 0.0000000000000000000 ) ) ;
#209 = CC_DESIGN_DATE_AND_TIME_ASSIGNMENT ( #66, #151, ( #156 ) ) ;
#210 = ORIENTED_EDGE ( 'NONE', *, *, #150, .T. ) ;
#211 = CARTESIAN_POINT ( 'NONE',  ( 12.50000000000000400, -19.00000000000000400, 0.0000000000000000000 ) ) ;
#212 = DIRECTION ( 'NONE',  ( -1.000000000000000000, -0.0000000000000000000, -0.0000000000000000000 ) ) ;
#213 = DIRECTION ( 'NONE',  ( 9.130123557772669600E-017, -1.000000000000000000, 0.0000000000000000000 ) ) ;
#214 = CC_DESIGN_PERSON_AND_ORGANIZATION_ASSIGNMENT ( #135, #22, ( #182 ) ) ;
#215 = CC_DESIGN_SECURITY_CLASSIFICATION ( #156, ( #99 ) ) ;
#216 =( NAMED_UNIT ( * ) SI_UNIT ( $, .STERADIAN. ) SOLID_ANGLE_UNIT ( ) );
#217 = LINE ( 'NONE', #51, #80 ) ;
#218 = VERTEX_POINT ( 'NONE', #118 ) ;
#219 = VERTEX_POINT ( 'NONE', #233 ) ;
#220 = AXIS2_PLACEMENT_3D ( 'NONE', #77, #126, #229 ) ;
#221 = PERSON ( 'UNSPECIFIED', 'UNSPECIFIED', 'UNSPECIFIED', ('UNSPECIFIED'), ('UNSPECIFIED'), ('UNSPECIFIED') ) ;
#222 = FACE_OUTER_BOUND ( 'NONE', #167, .T. ) ;
#223 = ORIENTED_EDGE ( 'NONE', *, *, #16, .T. ) ;
#224 = EDGE_LOOP ( 'NONE', ( #223, #93, #175, #108 ) ) ;
#225 = CARTESIAN_POINT ( 'NONE',  ( -12.49999999999999600, -19.00000000000000400, 3.000000000000000000 ) ) ;
#226 = EDGE_LOOP ( 'NONE', ( #132, #113, #186, #133 ) ) ;
#227 = ORIENTED_EDGE ( 'NONE', *, *, #207, .F. ) ;
#228 = EDGE_CURVE ( 'NONE', #146, #219, #63, .T. ) ;
#229 = DIRECTION ( 'NONE',  ( 1.369518533665900100E-016, -1.000000000000000000, 0.0000000000000000000 ) ) ;
#230 = LINE ( 'NONE', #21, #185 ) ;
#231 = CARTESIAN_POINT ( 'NONE',  ( -12.50000000000000000, 18.99999999999999600, 3.000000000000000000 ) ) ;
#232 = CALENDAR_DATE ( 2017, 10, 4 ) ;
#233 = CARTESIAN_POINT ( 'NONE',  ( -12.50000000000000000, 18.99999999999999600, 3.000000000000000000 ) ) ;
#234 = EDGE_CURVE ( 'NONE', #73, #146, #230, .T. ) ;
#235 = COORDINATED_UNIVERSAL_TIME_OFFSET ( 5, 0, .BEHIND. ) ;
#236 = VECTOR ( 'NONE', #8, 1000.000000000000000 ) ;
#237 = AXIS2_PLACEMENT_3D ( 'NONE', #5, #208, #31 ) ;
ENDSEC;
END-ISO-10303-21;
