ISO-10303-21;
HEADER;
FILE_DESCRIPTION (( 'STEP AP203' ),
    '1' );
FILE_NAME ('Web Model 14696_14696.step',
    '2020-04-13T14:16:01',
    ( '' ),
    ( '' ),
    'SwSTEP 2.0',
    'SolidWorks 2018',
    '' );
FILE_SCHEMA (( 'CONFIG_CONTROL_DESIGN' ));
ENDSEC;

DATA;
#1 = PERSON_AND_ORGANIZATION ( #137, #143 ) ;
#2 = DIRECTION ( 'NONE',  ( -1.000000000000000000, -0.0000000000000000000, -0.0000000000000000000 ) ) ;
#3 = DIRECTION ( 'NONE',  ( 1.000000000000000000, 0.0000000000000000000, 0.0000000000000000000 ) ) ;
#4 = CC_DESIGN_PERSON_AND_ORGANIZATION_ASSIGNMENT ( #75, #135, ( #57 ) ) ;
#5 = ORIENTED_EDGE ( 'NONE', *, *, #36, .T. ) ;
#6 = APPLICATION_CONTEXT ( 'configuration controlled 3d designs of mechanical parts and assemblies' ) ;
#7 = SECURITY_CLASSIFICATION_LEVEL ( 'unclassified' ) ;
#8 = DIRECTION ( 'NONE',  ( 0.0000000000000000000, 0.0000000000000000000, -1.000000000000000000 ) ) ;
#9 = CALENDAR_DATE ( 2020, 13, 4 ) ;
#10 = ADVANCED_FACE ( 'NONE', ( #174 ), #55, .T. ) ;
#11 = DATE_AND_TIME ( #124, #163 ) ;
#12 = CIRCLE ( 'NONE', #29, 12.69999999999999929 ) ;
#13 = CARTESIAN_POINT ( 'NONE',  ( -1.500000000000000000, 0.0000000000000000000, 0.0000000000000000000 ) ) ;
#14 = EDGE_LOOP ( 'NONE', ( #37, #83 ) ) ;
#15 = CARTESIAN_POINT ( 'NONE',  ( 1.500000000000000000, 0.0000000000000000000, 0.0000000000000000000 ) ) ;
#16 = DIRECTION ( 'NONE',  ( 0.0000000000000000000, 0.0000000000000000000, -1.000000000000000000 ) ) ;
#17 = AXIS2_PLACEMENT_3D ( 'NONE', #44, #31, #58 ) ;
#18 = PERSON_AND_ORGANIZATION ( #137, #143 ) ;
#19 = VECTOR ( 'NONE', #45, 1000.000000000000000 ) ;
#20 = CARTESIAN_POINT ( 'NONE',  ( -1.500000000000000000, 0.0000000000000000000, 0.0000000000000000000 ) ) ;
#21 = APPLICATION_CONTEXT ( 'configuration controlled 3d designs of mechanical parts and assemblies' ) ;
#22 = CARTESIAN_POINT ( 'NONE',  ( 1.500000000000000000, 1.555301434917138433E-15, -12.69999999999999929 ) ) ;
#23 = PERSON_AND_ORGANIZATION_ROLE ( 'classification_officer' ) ;
#24 = CC_DESIGN_SECURITY_CLASSIFICATION ( #146, ( #120 ) ) ;
#25 = COORDINATED_UNIVERSAL_TIME_OFFSET ( 5, 0, .BEHIND. ) ;
#26 = PRODUCT_RELATED_PRODUCT_CATEGORY ( 'detail', '', ( #57 ) ) ;
#27 = LINE ( 'NONE', #22, #161 ) ;
#28 = PERSON_AND_ORGANIZATION ( #137, #143 ) ;
#29 = AXIS2_PLACEMENT_3D ( 'NONE', #153, #98, #34 ) ;
#30 = CYLINDRICAL_SURFACE ( 'NONE', #99, 12.69999999999999929 ) ;
#31 = DIRECTION ( 'NONE',  ( 1.000000000000000000, 0.0000000000000000000, 0.0000000000000000000 ) ) ;
#32 = APPROVAL_PERSON_ORGANIZATION ( #92, #169, #61 ) ;
#33 = ORIENTED_EDGE ( 'NONE', *, *, #84, .F. ) ;
#34 = DIRECTION ( 'NONE',  ( 0.0000000000000000000, 0.0000000000000000000, -1.000000000000000000 ) ) ;
#35 =( NAMED_UNIT ( * ) SI_UNIT ( $, .STERADIAN. ) SOLID_ANGLE_UNIT ( ) );
#36 = EDGE_CURVE ( 'NONE', #142, #105, #54, .T. ) ;
#37 = ORIENTED_EDGE ( 'NONE', *, *, #59, .T. ) ;
#38 = APPLICATION_PROTOCOL_DEFINITION ( 'international standard', 'config_control_design', 1994, #21 ) ;
#39 = ADVANCED_FACE ( 'NONE', ( #40 ), #114, .T. ) ;
#40 = FACE_OUTER_BOUND ( 'NONE', #53, .T. ) ;
#41 = ORIENTED_EDGE ( 'NONE', *, *, #64, .F. ) ;
#42 = APPROVAL ( #134, 'UNSPECIFIED' ) ;
#43 = EDGE_CURVE ( 'NONE', #90, #105, #131, .T. ) ;
#44 = CARTESIAN_POINT ( 'NONE',  ( 1.500000000000000000, 0.0000000000000000000, 0.0000000000000000000 ) ) ;
#45 = DIRECTION ( 'NONE',  ( -1.000000000000000000, -0.0000000000000000000, -0.0000000000000000000 ) ) ;
#46 = APPROVAL_STATUS ( 'not_yet_approved' ) ;
#47 = APPROVAL_ROLE ( '' ) ;
#48 = APPROVAL_STATUS ( 'not_yet_approved' ) ;
#49 = PERSON_AND_ORGANIZATION_ROLE ( 'creator' ) ;
#50 = DATE_TIME_ROLE ( 'classification_date' ) ;
#51 = CLOSED_SHELL ( 'NONE', ( #65, #39, #10, #100 ) ) ;
#52 = CC_DESIGN_APPROVAL ( #42, ( #91 ) ) ;
#53 = EDGE_LOOP ( 'NONE', ( #116, #155, #5, #86 ) ) ;
#54 = LINE ( 'NONE', #162, #19 ) ;
#55 = PLANE ( 'NONE',  #17 ) ;
#56 = PRODUCT_DEFINITION_SHAPE ( 'NONE', 'NONE',  #91 ) ;
#57 = PRODUCT ( 'Web Model 14696_14696', 'Web Model 14696_14696', '', ( #122 ) ) ;
#58 = DIRECTION ( 'NONE',  ( 0.0000000000000000000, 0.0000000000000000000, -1.000000000000000000 ) ) ;
#59 = EDGE_CURVE ( 'NONE', #142, #128, #12, .T. ) ;
#60 = COORDINATED_UNIVERSAL_TIME_OFFSET ( 5, 0, .BEHIND. ) ;
#61 = APPROVAL_ROLE ( '' ) ;
#62 = DIRECTION ( 'NONE',  ( 1.000000000000000000, 0.0000000000000000000, 0.0000000000000000000 ) ) ;
#63 = APPROVAL_PERSON_ORGANIZATION ( #18, #42, #96 ) ;
#64 = EDGE_CURVE ( 'NONE', #128, #142, #145, .T. ) ;
#65 = ADVANCED_FACE ( 'NONE', ( #125 ), #30, .T. ) ;
#66 = UNCERTAINTY_MEASURE_WITH_UNIT (LENGTH_MEASURE( 1.000000000000000082E-05 ), #167, 'distance_accuracy_value', 'NONE');
#67 = APPROVAL ( #46, 'UNSPECIFIED' ) ;
#68 = APPROVAL_DATE_TIME ( #80, #67 ) ;
#69 = DIRECTION ( 'NONE',  ( -1.000000000000000000, -0.0000000000000000000, -0.0000000000000000000 ) ) ;
#70 = APPLICATION_PROTOCOL_DEFINITION ( 'international standard', 'config_control_design', 1994, #6 ) ;
#71 = LOCAL_TIME ( 10, 16, 1.000000000000000000, #77 ) ;
#72 = DIRECTION ( 'NONE',  ( 0.0000000000000000000, 0.0000000000000000000, -1.000000000000000000 ) ) ;
#73 = DIRECTION ( 'NONE',  ( -1.000000000000000000, -0.0000000000000000000, -0.0000000000000000000 ) ) ;
#74 = CALENDAR_DATE ( 2020, 13, 4 ) ;
#75 = PERSON_AND_ORGANIZATION ( #137, #143 ) ;
#76 = AXIS2_PLACEMENT_3D ( 'NONE', #123, #150, #8 ) ;
#77 = COORDINATED_UNIVERSAL_TIME_OFFSET ( 5, 0, .BEHIND. ) ;
#78 = SHAPE_DEFINITION_REPRESENTATION ( #56, #175 ) ;
#79 = AXIS2_PLACEMENT_3D ( 'NONE', #168, #108, #3 ) ;
#80 = DATE_AND_TIME ( #9, #71 ) ;
#81 = CARTESIAN_POINT ( 'NONE',  ( 1.500000000000000000, 0.0000000000000000000, 12.69999999999999929 ) ) ;
#82 =( NAMED_UNIT ( * ) PLANE_ANGLE_UNIT ( ) SI_UNIT ( $, .RADIAN. ) );
#83 = ORIENTED_EDGE ( 'NONE', *, *, #64, .T. ) ;
#84 = EDGE_CURVE ( 'NONE', #105, #90, #93, .T. ) ;
#85 = DATE_AND_TIME ( #149, #133 ) ;
#86 = ORIENTED_EDGE ( 'NONE', *, *, #84, .T. ) ;
#87 =( GEOMETRIC_REPRESENTATION_CONTEXT ( 3 ) GLOBAL_UNCERTAINTY_ASSIGNED_CONTEXT ( ( #66 ) ) GLOBAL_UNIT_ASSIGNED_CONTEXT ( ( #167, #82, #35 ) ) REPRESENTATION_CONTEXT ( 'NONE', 'WORKASPACE' ) );
#88 = PERSON_AND_ORGANIZATION ( #137, #143 ) ;
#89 = MANIFOLD_SOLID_BREP ( 'Boss-Extrude1', #51 ) ;
#90 = VERTEX_POINT ( 'NONE', #165 ) ;
#91 = PRODUCT_DEFINITION ( 'UNKNOWN', '', #120, #115 ) ;
#92 = PERSON_AND_ORGANIZATION ( #137, #143 ) ;
#93 = CIRCLE ( 'NONE', #76, 12.69999999999999929 ) ;
#94 = DIRECTION ( 'NONE',  ( 1.000000000000000000, 0.0000000000000000000, 0.0000000000000000000 ) ) ;
#95 = EDGE_CURVE ( 'NONE', #128, #90, #27, .T. ) ;
#96 = APPROVAL_ROLE ( '' ) ;
#97 = CARTESIAN_POINT ( 'NONE',  ( 1.500000000000000000, 1.555301434917138433E-15, -12.69999999999999929 ) ) ;
#98 = DIRECTION ( 'NONE',  ( 1.000000000000000000, 0.0000000000000000000, 0.0000000000000000000 ) ) ;
#99 = AXIS2_PLACEMENT_3D ( 'NONE', #117, #2, #107 ) ;
#100 = ADVANCED_FACE ( 'NONE', ( #156 ), #121, .F. ) ;
#101 = ORIENTED_EDGE ( 'NONE', *, *, #43, .F. ) ;
#102 = CC_DESIGN_PERSON_AND_ORGANIZATION_ASSIGNMENT ( #88, #23, ( #146 ) ) ;
#103 = CALENDAR_DATE ( 2020, 13, 4 ) ;
#104 = CC_DESIGN_PERSON_AND_ORGANIZATION_ASSIGNMENT ( #28, #152, ( #91 ) ) ;
#105 = VERTEX_POINT ( 'NONE', #132 ) ;
#106 = COORDINATED_UNIVERSAL_TIME_OFFSET ( 5, 0, .BEHIND. ) ;
#107 = DIRECTION ( 'NONE',  ( 0.0000000000000000000, 0.0000000000000000000, 1.000000000000000000 ) ) ;
#108 = DIRECTION ( 'NONE',  ( 0.0000000000000000000, 0.0000000000000000000, 1.000000000000000000 ) ) ;
#109 = DATE_TIME_ROLE ( 'creation_date' ) ;
#110 = AXIS2_PLACEMENT_3D ( 'NONE', #20, #166, #148 ) ;
#111 = DATE_AND_TIME ( #103, #140 ) ;
#112 = CC_DESIGN_DATE_AND_TIME_ASSIGNMENT ( #11, #109, ( #91 ) ) ;
#113 = APPROVAL_PERSON_ORGANIZATION ( #170, #67, #47 ) ;
#114 = CYLINDRICAL_SURFACE ( 'NONE', #172, 12.69999999999999929 ) ;
#115 = DESIGN_CONTEXT ( 'detailed design', #6, 'design' ) ;
#116 = ORIENTED_EDGE ( 'NONE', *, *, #95, .F. ) ;
#117 = CARTESIAN_POINT ( 'NONE',  ( 1.500000000000000000, 0.0000000000000000000, 0.0000000000000000000 ) ) ;
#118 = DATE_AND_TIME ( #74, #158 ) ;
#119 = EDGE_LOOP ( 'NONE', ( #41, #171, #154, #136 ) ) ;
#120 = PRODUCT_DEFINITION_FORMATION_WITH_SPECIFIED_SOURCE ( 'ANY', '', #57, .NOT_KNOWN. ) ;
#121 = PLANE ( 'NONE',  #110 ) ;
#122 = MECHANICAL_CONTEXT ( 'NONE', #21, 'mechanical' ) ;
#123 = CARTESIAN_POINT ( 'NONE',  ( -1.500000000000000000, 0.0000000000000000000, 0.0000000000000000000 ) ) ;
#124 = CALENDAR_DATE ( 2020, 13, 4 ) ;
#125 = FACE_OUTER_BOUND ( 'NONE', #119, .T. ) ;
#126 = CC_DESIGN_APPROVAL ( #169, ( #146 ) ) ;
#127 = APPROVAL_DATE_TIME ( #111, #42 ) ;
#128 = VERTEX_POINT ( 'NONE', #97 ) ;
#129 = CC_DESIGN_PERSON_AND_ORGANIZATION_ASSIGNMENT ( #1, #49, ( #120 ) ) ;
#130 = COORDINATED_UNIVERSAL_TIME_OFFSET ( 5, 0, .BEHIND. ) ;
#131 = CIRCLE ( 'NONE', #139, 12.69999999999999929 ) ;
#132 = CARTESIAN_POINT ( 'NONE',  ( -1.500000000000000000, 0.0000000000000000000, 12.69999999999999929 ) ) ;
#133 = LOCAL_TIME ( 10, 16, 1.000000000000000000, #60 ) ;
#134 = APPROVAL_STATUS ( 'not_yet_approved' ) ;
#135 = PERSON_AND_ORGANIZATION_ROLE ( 'design_owner' ) ;
#136 = ORIENTED_EDGE ( 'NONE', *, *, #36, .F. ) ;
#137 = PERSON ( 'UNSPECIFIED', 'UNSPECIFIED', 'UNSPECIFIED', ('UNSPECIFIED'), ('UNSPECIFIED'), ('UNSPECIFIED') ) ;
#138 = PERSON_AND_ORGANIZATION_ROLE ( 'design_supplier' ) ;
#139 = AXIS2_PLACEMENT_3D ( 'NONE', #13, #94, #16 ) ;
#140 = LOCAL_TIME ( 10, 16, 1.000000000000000000, #130 ) ;
#141 = CC_DESIGN_PERSON_AND_ORGANIZATION_ASSIGNMENT ( #173, #138, ( #120 ) ) ;
#142 = VERTEX_POINT ( 'NONE', #81 ) ;
#143 = ORGANIZATION ( 'UNSPECIFIED', 'UNSPECIFIED', '' ) ;
#144 = APPROVAL_DATE_TIME ( #85, #169 ) ;
#145 = CIRCLE ( 'NONE', #157, 12.69999999999999929 ) ;
#146 = SECURITY_CLASSIFICATION ( '', '', #7 ) ;
#147 = DIRECTION ( 'NONE',  ( 0.0000000000000000000, 0.0000000000000000000, 1.000000000000000000 ) ) ;
#148 = DIRECTION ( 'NONE',  ( 0.0000000000000000000, 0.0000000000000000000, -1.000000000000000000 ) ) ;
#149 = CALENDAR_DATE ( 2020, 13, 4 ) ;
#150 = DIRECTION ( 'NONE',  ( 1.000000000000000000, 0.0000000000000000000, 0.0000000000000000000 ) ) ;
#151 = CARTESIAN_POINT ( 'NONE',  ( 1.500000000000000000, 0.0000000000000000000, 0.0000000000000000000 ) ) ;
#152 = PERSON_AND_ORGANIZATION_ROLE ( 'creator' ) ;
#153 = CARTESIAN_POINT ( 'NONE',  ( 1.500000000000000000, 0.0000000000000000000, 0.0000000000000000000 ) ) ;
#154 = ORIENTED_EDGE ( 'NONE', *, *, #43, .T. ) ;
#155 = ORIENTED_EDGE ( 'NONE', *, *, #59, .F. ) ;
#156 = FACE_OUTER_BOUND ( 'NONE', #159, .T. ) ;
#157 = AXIS2_PLACEMENT_3D ( 'NONE', #151, #62, #72 ) ;
#158 = LOCAL_TIME ( 10, 16, 1.000000000000000000, #106 ) ;
#159 = EDGE_LOOP ( 'NONE', ( #33, #101 ) ) ;
#160 = CC_DESIGN_APPROVAL ( #67, ( #120 ) ) ;
#161 = VECTOR ( 'NONE', #73, 1000.000000000000000 ) ;
#162 = CARTESIAN_POINT ( 'NONE',  ( 1.500000000000000000, 0.0000000000000000000, 12.69999999999999929 ) ) ;
#163 = LOCAL_TIME ( 10, 16, 1.000000000000000000, #25 ) ;
#164 = CC_DESIGN_DATE_AND_TIME_ASSIGNMENT ( #118, #50, ( #146 ) ) ;
#165 = CARTESIAN_POINT ( 'NONE',  ( -1.500000000000000000, 1.555301434917138433E-15, -12.69999999999999929 ) ) ;
#166 = DIRECTION ( 'NONE',  ( 1.000000000000000000, 0.0000000000000000000, 0.0000000000000000000 ) ) ;
#167 =( LENGTH_UNIT ( ) NAMED_UNIT ( * ) SI_UNIT ( .MILLI., .METRE. ) );
#168 = CARTESIAN_POINT ( 'NONE',  ( 0.0000000000000000000, 0.0000000000000000000, 0.0000000000000000000 ) ) ;
#169 = APPROVAL ( #48, 'UNSPECIFIED' ) ;
#170 = PERSON_AND_ORGANIZATION ( #137, #143 ) ;
#171 = ORIENTED_EDGE ( 'NONE', *, *, #95, .T. ) ;
#172 = AXIS2_PLACEMENT_3D ( 'NONE', #15, #69, #147 ) ;
#173 = PERSON_AND_ORGANIZATION ( #137, #143 ) ;
#174 = FACE_OUTER_BOUND ( 'NONE', #14, .T. ) ;
#175 = ADVANCED_BREP_SHAPE_REPRESENTATION ( 'Web Model 14696_14696', ( #89, #79 ), #87 ) ;
ENDSEC;
END-ISO-10303-21;
