ISO-10303-21;
HEADER;
FILE_DESCRIPTION (( 'STEP AP203' ),
    '1' );
FILE_NAME ('Web Model 14679_14679.step',
    '2020-04-13T13:52:02',
    ( '' ),
    ( '' ),
    'SwSTEP 2.0',
    'SolidWorks 2018',
    '' );
FILE_SCHEMA (( 'CONFIG_CONTROL_DESIGN' ));
ENDSEC;

DATA;
#1 = CARTESIAN_POINT ( 'NONE',  ( -1.500000000000000000, 1.224646799147353256E-15, -10.00000000000000000 ) ) ;
#2 = DIRECTION ( 'NONE',  ( 0.0000000000000000000, 0.0000000000000000000, 1.000000000000000000 ) ) ;
#3 = DIRECTION ( 'NONE',  ( 0.0000000000000000000, 0.0000000000000000000, -1.000000000000000000 ) ) ;
#4 = CARTESIAN_POINT ( 'NONE',  ( 1.500000000000000000, 0.0000000000000000000, 10.00000000000000000 ) ) ;
#5 = LOCAL_TIME ( 9, 52, 2.000000000000000000, #127 ) ;
#6 = CARTESIAN_POINT ( 'NONE',  ( 0.0000000000000000000, 0.0000000000000000000, 0.0000000000000000000 ) ) ;
#7 = AXIS2_PLACEMENT_3D ( 'NONE', #99, #23, #16 ) ;
#8 = PERSON ( 'UNSPECIFIED', 'UNSPECIFIED', 'UNSPECIFIED', ('UNSPECIFIED'), ('UNSPECIFIED'), ('UNSPECIFIED') ) ;
#9 = PRODUCT_RELATED_PRODUCT_CATEGORY ( 'detail', '', ( #64 ) ) ;
#10 = CALENDAR_DATE ( 2020, 13, 4 ) ;
#11 = PRODUCT_DEFINITION ( 'UNKNOWN', '', #109, #174 ) ;
#12 = COORDINATED_UNIVERSAL_TIME_OFFSET ( 5, 0, .BEHIND. ) ;
#13 = PERSON_AND_ORGANIZATION ( #8, #158 ) ;
#14 = APPROVAL_DATE_TIME ( #57, #80 ) ;
#15 =( GEOMETRIC_REPRESENTATION_CONTEXT ( 3 ) GLOBAL_UNCERTAINTY_ASSIGNED_CONTEXT ( ( #58 ) ) GLOBAL_UNIT_ASSIGNED_CONTEXT ( ( #124, #73, #45 ) ) REPRESENTATION_CONTEXT ( 'NONE', 'WORKASPACE' ) );
#16 = DIRECTION ( 'NONE',  ( 0.0000000000000000000, 0.0000000000000000000, -1.000000000000000000 ) ) ;
#17 = LOCAL_TIME ( 9, 52, 2.000000000000000000, #51 ) ;
#18 = CARTESIAN_POINT ( 'NONE',  ( 1.500000000000000000, 0.0000000000000000000, 0.0000000000000000000 ) ) ;
#19 = AXIS2_PLACEMENT_3D ( 'NONE', #164, #153, #139 ) ;
#20 = EDGE_CURVE ( 'NONE', #68, #24, #42, .T. ) ;
#21 = VECTOR ( 'NONE', #54, 1000.000000000000000 ) ;
#22 = CALENDAR_DATE ( 2020, 13, 4 ) ;
#23 = DIRECTION ( 'NONE',  ( 1.000000000000000000, 0.0000000000000000000, 0.0000000000000000000 ) ) ;
#24 = VERTEX_POINT ( 'NONE', #1 ) ;
#25 = PERSON_AND_ORGANIZATION_ROLE ( 'creator' ) ;
#26 = AXIS2_PLACEMENT_3D ( 'NONE', #150, #175, #2 ) ;
#27 = APPROVAL_ROLE ( '' ) ;
#28 = DIRECTION ( 'NONE',  ( 1.000000000000000000, 0.0000000000000000000, 0.0000000000000000000 ) ) ;
#29 = ADVANCED_FACE ( 'NONE', ( #40 ), #87, .F. ) ;
#30 = CARTESIAN_POINT ( 'NONE',  ( 1.500000000000000000, 0.0000000000000000000, 0.0000000000000000000 ) ) ;
#31 = CIRCLE ( 'NONE', #114, 10.00000000000000000 ) ;
#32 = CLOSED_SHELL ( 'NONE', ( #43, #151, #75, #29 ) ) ;
#33 = DATE_AND_TIME ( #22, #94 ) ;
#34 = VECTOR ( 'NONE', #140, 1000.000000000000000 ) ;
#35 = ADVANCED_BREP_SHAPE_REPRESENTATION ( 'Web Model 14679_14679', ( #169, #172 ), #15 ) ;
#36 = APPROVAL ( #41, 'UNSPECIFIED' ) ;
#37 = APPROVAL_STATUS ( 'not_yet_approved' ) ;
#38 = APPROVAL_DATE_TIME ( #95, #111 ) ;
#39 = CYLINDRICAL_SURFACE ( 'NONE', #50, 10.00000000000000000 ) ;
#40 = FACE_OUTER_BOUND ( 'NONE', #105, .T. ) ;
#41 = APPROVAL_STATUS ( 'not_yet_approved' ) ;
#42 = LINE ( 'NONE', #86, #21 ) ;
#43 = ADVANCED_FACE ( 'NONE', ( #74 ), #101, .T. ) ;
#44 = DIRECTION ( 'NONE',  ( 0.0000000000000000000, 0.0000000000000000000, -1.000000000000000000 ) ) ;
#45 =( NAMED_UNIT ( * ) SI_UNIT ( $, .STERADIAN. ) SOLID_ANGLE_UNIT ( ) );
#46 = APPROVAL_PERSON_ORGANIZATION ( #82, #36, #27 ) ;
#47 = ORIENTED_EDGE ( 'NONE', *, *, #78, .F. ) ;
#48 = COORDINATED_UNIVERSAL_TIME_OFFSET ( 5, 0, .BEHIND. ) ;
#49 = EDGE_LOOP ( 'NONE', ( #128, #47, #61, #144 ) ) ;
#50 = AXIS2_PLACEMENT_3D ( 'NONE', #102, #110, #123 ) ;
#51 = COORDINATED_UNIVERSAL_TIME_OFFSET ( 5, 0, .BEHIND. ) ;
#52 = APPROVAL_STATUS ( 'not_yet_approved' ) ;
#53 = SHAPE_DEFINITION_REPRESENTATION ( #104, #35 ) ;
#54 = DIRECTION ( 'NONE',  ( -1.000000000000000000, -0.0000000000000000000, -0.0000000000000000000 ) ) ;
#55 = PLANE ( 'NONE',  #106 ) ;
#56 = CARTESIAN_POINT ( 'NONE',  ( -1.500000000000000000, 0.0000000000000000000, 10.00000000000000000 ) ) ;
#57 = DATE_AND_TIME ( #97, #129 ) ;
#58 = UNCERTAINTY_MEASURE_WITH_UNIT (LENGTH_MEASURE( 1.000000000000000082E-05 ), #124, 'distance_accuracy_value', 'NONE');
#59 = EDGE_CURVE ( 'NONE', #24, #145, #143, .T. ) ;
#60 = EDGE_LOOP ( 'NONE', ( #167, #83 ) ) ;
#61 = ORIENTED_EDGE ( 'NONE', *, *, #162, .T. ) ;
#62 = DATE_TIME_ROLE ( 'classification_date' ) ;
#63 = FACE_OUTER_BOUND ( 'NONE', #49, .T. ) ;
#64 = PRODUCT ( 'Web Model 14679_14679', 'Web Model 14679_14679', '', ( #69 ) ) ;
#65 = PERSON_AND_ORGANIZATION_ROLE ( 'design_owner' ) ;
#66 = CARTESIAN_POINT ( 'NONE',  ( 1.500000000000000000, 1.224646799147353256E-15, -10.00000000000000000 ) ) ;
#67 = CC_DESIGN_PERSON_AND_ORGANIZATION_ASSIGNMENT ( #71, #65, ( #64 ) ) ;
#68 = VERTEX_POINT ( 'NONE', #66 ) ;
#69 = MECHANICAL_CONTEXT ( 'NONE', #141, 'mechanical' ) ;
#70 = DIRECTION ( 'NONE',  ( 0.0000000000000000000, 0.0000000000000000000, -1.000000000000000000 ) ) ;
#71 = PERSON_AND_ORGANIZATION ( #8, #158 ) ;
#72 = LINE ( 'NONE', #155, #34 ) ;
#73 =( NAMED_UNIT ( * ) PLANE_ANGLE_UNIT ( ) SI_UNIT ( $, .RADIAN. ) );
#74 = FACE_OUTER_BOUND ( 'NONE', #173, .T. ) ;
#75 = ADVANCED_FACE ( 'NONE', ( #147 ), #55, .T. ) ;
#76 = CC_DESIGN_PERSON_AND_ORGANIZATION_ASSIGNMENT ( #156, #149, ( #11 ) ) ;
#77 = APPROVAL_PERSON_ORGANIZATION ( #148, #111, #160 ) ;
#78 = EDGE_CURVE ( 'NONE', #91, #68, #154, .T. ) ;
#79 = ORIENTED_EDGE ( 'NONE', *, *, #168, .F. ) ;
#80 = APPROVAL ( #37, 'UNSPECIFIED' ) ;
#81 = SECURITY_CLASSIFICATION_LEVEL ( 'unclassified' ) ;
#82 = PERSON_AND_ORGANIZATION ( #8, #158 ) ;
#83 = ORIENTED_EDGE ( 'NONE', *, *, #168, .T. ) ;
#84 = CC_DESIGN_APPROVAL ( #111, ( #146 ) ) ;
#85 = APPLICATION_PROTOCOL_DEFINITION ( 'international standard', 'config_control_design', 1994, #133 ) ;
#86 = CARTESIAN_POINT ( 'NONE',  ( 1.500000000000000000, 1.224646799147353256E-15, -10.00000000000000000 ) ) ;
#87 = PLANE ( 'NONE',  #166 ) ;
#88 = DIRECTION ( 'NONE',  ( 1.000000000000000000, 0.0000000000000000000, 0.0000000000000000000 ) ) ;
#89 = ORIENTED_EDGE ( 'NONE', *, *, #59, .T. ) ;
#90 = DIRECTION ( 'NONE',  ( 0.0000000000000000000, 0.0000000000000000000, 1.000000000000000000 ) ) ;
#91 = VERTEX_POINT ( 'NONE', #4 ) ;
#92 = APPLICATION_PROTOCOL_DEFINITION ( 'international standard', 'config_control_design', 1994, #141 ) ;
#93 = CC_DESIGN_APPROVAL ( #80, ( #109 ) ) ;
#94 = LOCAL_TIME ( 9, 52, 2.000000000000000000, #48 ) ;
#95 = DATE_AND_TIME ( #125, #121 ) ;
#96 = PERSON_AND_ORGANIZATION_ROLE ( 'design_supplier' ) ;
#97 = CALENDAR_DATE ( 2020, 13, 4 ) ;
#98 = APPROVAL_ROLE ( '' ) ;
#99 = CARTESIAN_POINT ( 'NONE',  ( -1.500000000000000000, 0.0000000000000000000, 0.0000000000000000000 ) ) ;
#100 = DIRECTION ( 'NONE',  ( 1.000000000000000000, 0.0000000000000000000, 0.0000000000000000000 ) ) ;
#101 = CYLINDRICAL_SURFACE ( 'NONE', #26, 10.00000000000000000 ) ;
#102 = CARTESIAN_POINT ( 'NONE',  ( 1.500000000000000000, 0.0000000000000000000, 0.0000000000000000000 ) ) ;
#103 = DIRECTION ( 'NONE',  ( 1.000000000000000000, 0.0000000000000000000, 0.0000000000000000000 ) ) ;
#104 = PRODUCT_DEFINITION_SHAPE ( 'NONE', 'NONE',  #11 ) ;
#105 = EDGE_LOOP ( 'NONE', ( #157, #132 ) ) ;
#106 = AXIS2_PLACEMENT_3D ( 'NONE', #30, #88, #3 ) ;
#107 = CALENDAR_DATE ( 2020, 13, 4 ) ;
#108 = CC_DESIGN_APPROVAL ( #36, ( #11 ) ) ;
#109 = PRODUCT_DEFINITION_FORMATION_WITH_SPECIFIED_SOURCE ( 'ANY', '', #64, .NOT_KNOWN. ) ;
#110 = DIRECTION ( 'NONE',  ( -1.000000000000000000, -0.0000000000000000000, -0.0000000000000000000 ) ) ;
#111 = APPROVAL ( #52, 'UNSPECIFIED' ) ;
#112 = DIRECTION ( 'NONE',  ( 1.000000000000000000, 0.0000000000000000000, 0.0000000000000000000 ) ) ;
#113 = PERSON_AND_ORGANIZATION ( #8, #158 ) ;
#114 = AXIS2_PLACEMENT_3D ( 'NONE', #18, #112, #44 ) ;
#115 = CC_DESIGN_PERSON_AND_ORGANIZATION_ASSIGNMENT ( #113, #25, ( #109 ) ) ;
#116 = PERSON_AND_ORGANIZATION ( #8, #158 ) ;
#117 = CC_DESIGN_SECURITY_CLASSIFICATION ( #146, ( #109 ) ) ;
#118 = COORDINATED_UNIVERSAL_TIME_OFFSET ( 5, 0, .BEHIND. ) ;
#119 = PERSON_AND_ORGANIZATION_ROLE ( 'classification_officer' ) ;
#120 = DIRECTION ( 'NONE',  ( 0.0000000000000000000, 0.0000000000000000000, -1.000000000000000000 ) ) ;
#121 = LOCAL_TIME ( 9, 52, 2.000000000000000000, #118 ) ;
#122 = CC_DESIGN_DATE_AND_TIME_ASSIGNMENT ( #33, #137, ( #11 ) ) ;
#123 = DIRECTION ( 'NONE',  ( 0.0000000000000000000, 0.0000000000000000000, 1.000000000000000000 ) ) ;
#124 =( LENGTH_UNIT ( ) NAMED_UNIT ( * ) SI_UNIT ( .MILLI., .METRE. ) );
#125 = CALENDAR_DATE ( 2020, 13, 4 ) ;
#126 = AXIS2_PLACEMENT_3D ( 'NONE', #165, #100, #70 ) ;
#127 = COORDINATED_UNIVERSAL_TIME_OFFSET ( 5, 0, .BEHIND. ) ;
#128 = ORIENTED_EDGE ( 'NONE', *, *, #20, .F. ) ;
#129 = LOCAL_TIME ( 9, 52, 2.000000000000000000, #12 ) ;
#130 = ORIENTED_EDGE ( 'NONE', *, *, #162, .F. ) ;
#131 = CC_DESIGN_PERSON_AND_ORGANIZATION_ASSIGNMENT ( #161, #96, ( #109 ) ) ;
#132 = ORIENTED_EDGE ( 'NONE', *, *, #59, .F. ) ;
#133 = APPLICATION_CONTEXT ( 'configuration controlled 3d designs of mechanical parts and assemblies' ) ;
#134 = DATE_AND_TIME ( #107, #5 ) ;
#135 = CARTESIAN_POINT ( 'NONE',  ( -1.500000000000000000, 0.0000000000000000000, 0.0000000000000000000 ) ) ;
#136 = CIRCLE ( 'NONE', #126, 10.00000000000000000 ) ;
#137 = DATE_TIME_ROLE ( 'creation_date' ) ;
#138 = ORIENTED_EDGE ( 'NONE', *, *, #20, .T. ) ;
#139 = DIRECTION ( 'NONE',  ( 0.0000000000000000000, 0.0000000000000000000, -1.000000000000000000 ) ) ;
#140 = DIRECTION ( 'NONE',  ( -1.000000000000000000, -0.0000000000000000000, -0.0000000000000000000 ) ) ;
#141 = APPLICATION_CONTEXT ( 'configuration controlled 3d designs of mechanical parts and assemblies' ) ;
#142 = APPROVAL_DATE_TIME ( #134, #36 ) ;
#143 = CIRCLE ( 'NONE', #7, 10.00000000000000000 ) ;
#144 = ORIENTED_EDGE ( 'NONE', *, *, #170, .T. ) ;
#145 = VERTEX_POINT ( 'NONE', #56 ) ;
#146 = SECURITY_CLASSIFICATION ( '', '', #81 ) ;
#147 = FACE_OUTER_BOUND ( 'NONE', #60, .T. ) ;
#148 = PERSON_AND_ORGANIZATION ( #8, #158 ) ;
#149 = PERSON_AND_ORGANIZATION_ROLE ( 'creator' ) ;
#150 = CARTESIAN_POINT ( 'NONE',  ( 1.500000000000000000, 0.0000000000000000000, 0.0000000000000000000 ) ) ;
#151 = ADVANCED_FACE ( 'NONE', ( #63 ), #39, .T. ) ;
#152 = CC_DESIGN_PERSON_AND_ORGANIZATION_ASSIGNMENT ( #13, #119, ( #146 ) ) ;
#153 = DIRECTION ( 'NONE',  ( 1.000000000000000000, 0.0000000000000000000, 0.0000000000000000000 ) ) ;
#154 = CIRCLE ( 'NONE', #19, 10.00000000000000000 ) ;
#155 = CARTESIAN_POINT ( 'NONE',  ( 1.500000000000000000, 0.0000000000000000000, 10.00000000000000000 ) ) ;
#156 = PERSON_AND_ORGANIZATION ( #8, #158 ) ;
#157 = ORIENTED_EDGE ( 'NONE', *, *, #170, .F. ) ;
#158 = ORGANIZATION ( 'UNSPECIFIED', 'UNSPECIFIED', '' ) ;
#159 = CC_DESIGN_DATE_AND_TIME_ASSIGNMENT ( #171, #62, ( #146 ) ) ;
#160 = APPROVAL_ROLE ( '' ) ;
#161 = PERSON_AND_ORGANIZATION ( #8, #158 ) ;
#162 = EDGE_CURVE ( 'NONE', #91, #145, #72, .T. ) ;
#163 = APPROVAL_PERSON_ORGANIZATION ( #116, #80, #98 ) ;
#164 = CARTESIAN_POINT ( 'NONE',  ( 1.500000000000000000, 0.0000000000000000000, 0.0000000000000000000 ) ) ;
#165 = CARTESIAN_POINT ( 'NONE',  ( -1.500000000000000000, 0.0000000000000000000, 0.0000000000000000000 ) ) ;
#166 = AXIS2_PLACEMENT_3D ( 'NONE', #135, #28, #120 ) ;
#167 = ORIENTED_EDGE ( 'NONE', *, *, #78, .T. ) ;
#168 = EDGE_CURVE ( 'NONE', #68, #91, #31, .T. ) ;
#169 = MANIFOLD_SOLID_BREP ( 'Boss-Extrude1', #32 ) ;
#170 = EDGE_CURVE ( 'NONE', #145, #24, #136, .T. ) ;
#171 = DATE_AND_TIME ( #10, #17 ) ;
#172 = AXIS2_PLACEMENT_3D ( 'NONE', #6, #90, #103 ) ;
#173 = EDGE_LOOP ( 'NONE', ( #79, #138, #89, #130 ) ) ;
#174 = DESIGN_CONTEXT ( 'detailed design', #133, 'design' ) ;
#175 = DIRECTION ( 'NONE',  ( -1.000000000000000000, -0.0000000000000000000, -0.0000000000000000000 ) ) ;
ENDSEC;
END-ISO-10303-21;
