ISO-10303-21;
HEADER;
FILE_DESCRIPTION (( 'STEP AP203' ),
    '1' );
FILE_NAME ('TTN023918-E0W.STEP',
    '2014-04-22T14:52:32',
    ( 'admin' ),
    ( '' ),
    'SwSTEP 2.0',
    'SolidWorks 2012',
    '' );
FILE_SCHEMA (( 'CONFIG_CONTROL_DESIGN' ));
ENDSEC;

DATA;
#1 = DESIGN_CONTEXT ( 'detailed design', #265, 'design' ) ;
#2 = PRODUCT_DEFINITION_SHAPE ( 'NONE', 'NONE',  #36 ) ;
#3 = EDGE_CURVE ( 'NONE', #105, #110, #141, .T. ) ;
#4 = EDGE_CURVE ( 'NONE', #109, #110, #159, .T. ) ;
#5 = EDGE_CURVE ( 'NONE', #104, #105, #148, .T. ) ;
#6 = EDGE_CURVE ( 'NONE', #103, #110, #152, .T. ) ;
#7 = EDGE_CURVE ( 'NONE', #104, #109, #140, .T. ) ;
#8 = EDGE_CURVE ( 'NONE', #102, #103, #125, .T. ) ;
#9 = EDGE_CURVE ( 'NONE', #112, #102, #144, .T. ) ;
#10 = EDGE_CURVE ( 'NONE', #112, #108, #126, .T. ) ;
#11 = EDGE_CURVE ( 'NONE', #107, #102, #155, .T. ) ;
#12 = EDGE_CURVE ( 'NONE', #108, #103, #129, .T. ) ;
#13 = EDGE_CURVE ( 'NONE', #107, #112, #132, .T. ) ;
#14 = AXIS2_PLACEMENT_3D ( 'NONE', #95, #97, #98 ) ;
#15 = AXIS2_PLACEMENT_3D ( 'NONE', #93, #101, #96 ) ;
#16 = AXIS2_PLACEMENT_3D ( 'NONE', #53, #54, #58 ) ;
#17 = AXIS2_PLACEMENT_3D ( 'NONE', #291, #292, #302 ) ;
#18 = AXIS2_PLACEMENT_3D ( 'NONE', #203, #267, #266 ) ;
#19 = AXIS2_PLACEMENT_3D ( 'NONE', #57, #205, #206 ) ;
#20 = AXIS2_PLACEMENT_3D ( 'NONE', #209, #213, #215 ) ;
#21 = AXIS2_PLACEMENT_3D ( 'NONE', #218, #216, #214 ) ;
#22 = AXIS2_PLACEMENT_3D ( 'NONE', #219, #217, #222 ) ;
#23 = AXIS2_PLACEMENT_3D ( 'NONE', #221, #220, #225 ) ;
#24 = AXIS2_PLACEMENT_3D ( 'NONE', #231, #230, #226 ) ;
#25 = AXIS2_PLACEMENT_3D ( 'NONE', #223, #228, #229 ) ;
#26 = AXIS2_PLACEMENT_3D ( 'NONE', #240, #238, #236 ) ;
#27 = AXIS2_PLACEMENT_3D ( 'NONE', #242, #243, #244 ) ;
#28 = AXIS2_PLACEMENT_3D ( 'NONE', #234, #232, #227 ) ;
#29 = AXIS2_PLACEMENT_3D ( 'NONE', #237, #235, #233 ) ;
#30 = AXIS2_PLACEMENT_3D ( 'NONE', #246, #247, #248 ) ;
#31 = AXIS2_PLACEMENT_3D ( 'NONE', #250, #251, #252 ) ;
#32 = AXIS2_PLACEMENT_3D ( 'NONE', #253, #254, #255 ) ;
#33 =( GEOMETRIC_REPRESENTATION_CONTEXT ( 3 ) GLOBAL_UNCERTAINTY_ASSIGNED_CONTEXT ( ( #288 ) ) GLOBAL_UNIT_ASSIGNED_CONTEXT ( ( #257, #258, #259 ) ) REPRESENTATION_CONTEXT ( 'NONE', 'WORKASPACE' ) );
#34 = AXIS2_PLACEMENT_3D ( 'NONE', #241, #245, #262 ) ;
#35 = CC_DESIGN_PERSON_AND_ORGANIZATION_ASSIGNMENT ( #61, #264, ( #59 ) ) ;
#36 = PRODUCT_DEFINITION ( 'UNKNOWN', '', #41, #1 ) ;
#37 = APPROVAL ( #175, 'UNSPECIFIED' ) ;
#38 = CC_DESIGN_APPROVAL ( #37, ( #36 ) ) ;
#39 = CC_DESIGN_PERSON_AND_ORGANIZATION_ASSIGNMENT ( #84, #177, ( #36 ) ) ;
#40 = CC_DESIGN_DATE_AND_TIME_ASSIGNMENT ( #81, #178, ( #36 ) ) ;
#41 = PRODUCT_DEFINITION_FORMATION_WITH_SPECIFIED_SOURCE ( 'ANY', '', #59, .NOT_KNOWN. ) ;
#42 = APPROVAL ( #179, 'UNSPECIFIED' ) ;
#43 = CC_DESIGN_APPROVAL ( #42, ( #41 ) ) ;
#44 = CC_DESIGN_PERSON_AND_ORGANIZATION_ASSIGNMENT ( #72, #181, ( #41 ) ) ;
#45 = CC_DESIGN_PERSON_AND_ORGANIZATION_ASSIGNMENT ( #166, #182, ( #41 ) ) ;
#46 = SECURITY_CLASSIFICATION ( '', '', #183 ) ;
#47 = CC_DESIGN_PERSON_AND_ORGANIZATION_ASSIGNMENT ( #164, #184, ( #46 ) ) ;
#48 = CC_DESIGN_DATE_AND_TIME_ASSIGNMENT ( #283, #185, ( #46 ) ) ;
#49 = APPROVAL ( #186, 'UNSPECIFIED' ) ;
#50 = CC_DESIGN_APPROVAL ( #49, ( #46 ) ) ;
#51 = CC_DESIGN_SECURITY_CLASSIFICATION ( #46, ( #41 ) ) ;
#52 = PRODUCT_RELATED_PRODUCT_CATEGORY ( 'detail', '', ( #59 ) ) ;
#53 = CARTESIAN_POINT ( 'NONE',  ( 0.0000000000000000000, 6.396208091276285600E-015, 0.03714944170525982100 ) ) ;
#54 = DIRECTION ( 'NONE',  ( -0.0000000000000000000, -8.128891492138420400E-014, -1.000000000000000000 ) ) ;
#55 = CARTESIAN_POINT ( 'NONE',  ( 6.075019554825378400E-017, -0.4921259842519556400, 0.03714944170529982400 ) ) ;
#56 = DIRECTION ( 'NONE',  ( 0.0000000000000000000, 0.7071067811865471300, -0.7071067811865479100 ) ) ;
#57 = CARTESIAN_POINT ( 'NONE',  ( 0.0000000000000000000, 3.371312364363858900E-015, -27.56992125984252700 ) ) ;
#58 = DIRECTION ( 'NONE',  ( 0.0000000000000000000, 1.000000000000000000, -8.128914208427424100E-014 ) ) ;
#59 = PRODUCT ( 'TTN023918-E0W', 'TTN023918-E0W', '', ( #263 ) ) ;
#60 = PERSON ( 'UNSPECIFIED', 'UNSPECIFIED', 'UNSPECIFIED', ('UNSPECIFIED'), ('UNSPECIFIED'), ('UNSPECIFIED') ) ;
#61 = PERSON_AND_ORGANIZATION ( #60, #62 ) ;
#62 = ORGANIZATION ( 'UNSPECIFIED', 'UNSPECIFIED', '' ) ;
#63 = EDGE_LOOP ( 'NONE', ( #188, #189, #295, #294 ) ) ;
#64 = EDGE_LOOP ( 'NONE', ( #171, #173, #174, #170 ) ) ;
#65 = EDGE_LOOP ( 'NONE', ( #192, #281, #293, #296 ) ) ;
#66 = EDGE_LOOP ( 'NONE', ( #169, #200, #199, #197 ) ) ;
#67 = EDGE_LOOP ( 'NONE', ( #277, #278, #191 ) ) ;
#68 = EDGE_LOOP ( 'NONE', ( #172, #168 ) ) ;
#69 = EDGE_LOOP ( 'NONE', ( #300, #299, #297, #298 ) ) ;
#70 = EDGE_LOOP ( 'NONE', ( #198, #196, #106 ) ) ;
#71 = APPROVAL_PERSON_ORGANIZATION ( #85, #37, #176 ) ;
#72 = PERSON_AND_ORGANIZATION ( #60, #62 ) ;
#73 = APPROVAL_DATE_TIME ( #89, #42 ) ;
#74 = DATE_AND_TIME ( #86, #83 ) ;
#75 = APPROVAL_PERSON_ORGANIZATION ( #79, #42, #180 ) ;
#76 = COORDINATED_UNIVERSAL_TIME_OFFSET ( 5, 0, .BEHIND. ) ;
#77 = COORDINATED_UNIVERSAL_TIME_OFFSET ( 5, 0, .BEHIND. ) ;
#78 = CALENDAR_DATE ( 2014, 22, 4 ) ;
#79 = PERSON_AND_ORGANIZATION ( #60, #62 ) ;
#80 = LOCAL_TIME ( 10, 52, 32.00000000000000000, #76 ) ;
#81 = DATE_AND_TIME ( #78, #80 ) ;
#82 = LOCAL_TIME ( 10, 52, 32.00000000000000000, #77 ) ;
#83 = LOCAL_TIME ( 10, 52, 32.00000000000000000, #88 ) ;
#84 = PERSON_AND_ORGANIZATION ( #60, #62 ) ;
#85 = PERSON_AND_ORGANIZATION ( #60, #62 ) ;
#86 = CALENDAR_DATE ( 2014, 22, 4 ) ;
#87 = APPROVAL_DATE_TIME ( #74, #37 ) ;
#88 = COORDINATED_UNIVERSAL_TIME_OFFSET ( 5, 0, .BEHIND. ) ;
#89 = DATE_AND_TIME ( #90, #82 ) ;
#90 = CALENDAR_DATE ( 2014, 22, 4 ) ;
#91 = CARTESIAN_POINT ( 'NONE',  ( 6.123233995736766000E-017, -0.5000000000000000000, -0.04153543307086629600 ) ) ;
#92 = DIRECTION ( 'NONE',  ( -0.0000000000000000000, 3.061515884555943100E-016, -1.000000000000000000 ) ) ;
#93 = CARTESIAN_POINT ( 'NONE',  ( 0.0000000000000000000, 3.264404611774205300E-027, -0.04153543307082613300 ) ) ;
#94 = CARTESIAN_POINT ( 'NONE',  ( 0.0000000000000000000, 0.4999999999999999400, 0.02927542595718831500 ) ) ;
#95 = CARTESIAN_POINT ( 'NONE',  ( 0.0000000000000000000, 6.400701962346880400E-016, -0.03366141732279399900 ) ) ;
#96 = DIRECTION ( 'NONE',  ( 0.0000000000000000000, 1.000000000000000000, -8.128914208427318000E-014 ) ) ;
#97 = DIRECTION ( 'NONE',  ( -0.0000000000000000000, -8.128891492138420400E-014, -1.000000000000000000 ) ) ;
#98 = DIRECTION ( 'NONE',  ( 0.0000000000000000000, 1.000000000000000000, -8.128955186147233200E-014 ) ) ;
#99 = CARTESIAN_POINT ( 'NONE',  ( 6.123233995736758600E-017, 0.5000000000000000000, -0.03366141732283464700 ) ) ;
#100 = DIRECTION ( 'NONE',  ( 8.659560562354254900E-017, 0.7071067811865496800, 0.7071067811865453500 ) ) ;
#101 = DIRECTION ( 'NONE',  ( -0.0000000000000000000, -8.128891492138420400E-014, -1.000000000000000000 ) ) ;
#102 = VERTEX_POINT ( 'NONE', #55 ) ;
#103 = VERTEX_POINT ( 'NONE', #290 ) ;
#104 = VERTEX_POINT ( 'NONE', #208 ) ;
#105 = VERTEX_POINT ( 'NONE', #301 ) ;
#106 = ORIENTED_EDGE ( 'NONE', *, *, #195, .F. ) ;
#107 = VERTEX_POINT ( 'NONE', #207 ) ;
#108 = VERTEX_POINT ( 'NONE', #94 ) ;
#109 = VERTEX_POINT ( 'NONE', #210 ) ;
#110 = VERTEX_POINT ( 'NONE', #211 ) ;
#111 = CLOSED_SHELL ( 'NONE', ( #116, #118, #114, #119, #120, #113, #117, #121, #115 ) ) ;
#112 = VERTEX_POINT ( 'NONE', #212 ) ;
#113 = ADVANCED_FACE ( 'NONE', ( #134 ), #149, .T. ) ;
#114 = ADVANCED_FACE ( 'NONE', ( #156 ), #131, .T. ) ;
#115 = ADVANCED_FACE ( 'NONE', ( #146 ), #163, .T. ) ;
#116 = ADVANCED_FACE ( 'NONE', ( #127 ), #160, .T. ) ;
#117 = ADVANCED_FACE ( 'NONE', ( #157 ), #224, .T. ) ;
#118 = ADVANCED_FACE ( 'NONE', ( #135 ), #139, .T. ) ;
#119 = ADVANCED_FACE ( 'NONE', ( #162 ), #150, .T. ) ;
#120 = ADVANCED_FACE ( 'NONE', ( #123 ), #142, .T. ) ;
#121 = ADVANCED_FACE ( 'NONE', ( #161 ), #153, .T. ) ;
#122 = DIMENSIONAL_EXPONENTS ( 1.000000000000000000, 0.0000000000000000000, 0.0000000000000000000, 0.0000000000000000000, 0.0000000000000000000, 0.0000000000000000000, 0.0000000000000000000 ) ;
#123 = FACE_OUTER_BOUND ( 'NONE', #69, .T. ) ;
#124 = SHAPE_DEFINITION_REPRESENTATION ( #2, #287 ) ;
#125 = LINE ( 'NONE', #275, #147 ) ;
#126 = LINE ( 'NONE', #276, #128 ) ;
#127 = FACE_OUTER_BOUND ( 'NONE', #67, .T. ) ;
#128 = VECTOR ( 'NONE', #56, 39.37007874015748100 ) ;
#129 = CIRCLE ( 'NONE', #18, 0.4999999999999941700 ) ;
#130 = CIRCLE ( 'NONE', #31, 0.4921259842519684600 ) ;
#131 = CONICAL_SURFACE ( 'NONE', #21, 0.4999999999999993900, 0.7853981633973700100 ) ;
#132 = CIRCLE ( 'NONE', #19, 27.61145669291339300 ) ;
#133 = VECTOR ( 'NONE', #100, 39.37007874015748100 ) ;
#134 = FACE_OUTER_BOUND ( 'NONE', #64, .T. ) ;
#135 = FACE_OUTER_BOUND ( 'NONE', #280, .T. ) ;
#136 = VECTOR ( 'NONE', #92, 39.37007874015748100 ) ;
#137 = CIRCLE ( 'NONE', #27, 0.4921259842519620800 ) ;
#138 = LINE ( 'NONE', #239, #145 ) ;
#139 = CONICAL_SURFACE ( 'NONE', #24, 0.4921259842519620800, 0.7853981633975291000 ) ;
#140 = LINE ( 'NONE', #99, #133 ) ;
#141 = LINE ( 'NONE', #204, #154 ) ;
#142 = CYLINDRICAL_SURFACE ( 'NONE', #29, 0.5000000000000000000 ) ;
#143 = CIRCLE ( 'NONE', #32, 0.4999999999999993900 ) ;
#144 = CIRCLE ( 'NONE', #16, 0.4921259842519620800 ) ;
#145 = VECTOR ( 'NONE', #249, 39.37007874015748100 ) ;
#146 = FACE_OUTER_BOUND ( 'NONE', #70, .T. ) ;
#147 = VECTOR ( 'NONE', #274, 39.37007874015748100 ) ;
#148 = CIRCLE ( 'NONE', #15, 0.4921259842519684600 ) ;
#149 = CONICAL_SURFACE ( 'NONE', #20, 0.4999999999999993900, 0.7853981633973700100 ) ;
#150 = CYLINDRICAL_SURFACE ( 'NONE', #28, 0.5000000000000000000 ) ;
#151 = LENGTH_MEASURE_WITH_UNIT ( LENGTH_MEASURE( 0.02539999999999999900 ), #256 );
#152 = LINE ( 'NONE', #91, #136 ) ;
#153 = CONICAL_SURFACE ( 'NONE', #26, 0.4921259842519620800, 0.7853981633975291000 ) ;
#154 = VECTOR ( 'NONE', #201, 39.37007874015748100 ) ;
#155 = CIRCLE ( 'NONE', #17, 27.61145669291339300 ) ;
#156 = FACE_OUTER_BOUND ( 'NONE', #63, .T. ) ;
#157 = FACE_OUTER_BOUND ( 'NONE', #68, .T. ) ;
#158 = CIRCLE ( 'NONE', #30, 0.4999999999999941700 ) ;
#159 = CIRCLE ( 'NONE', #14, 0.4999999999999993900 ) ;
#160 = SPHERICAL_SURFACE ( 'NONE', #23, 27.61145669291339300 ) ;
#161 = FACE_OUTER_BOUND ( 'NONE', #66, .T. ) ;
#162 = FACE_OUTER_BOUND ( 'NONE', #65, .T. ) ;
#163 = SPHERICAL_SURFACE ( 'NONE', #22, 27.61145669291339300 ) ;
#164 = PERSON_AND_ORGANIZATION ( #60, #62 ) ;
#165 = LOCAL_TIME ( 10, 52, 32.00000000000000000, #167 ) ;
#166 = PERSON_AND_ORGANIZATION ( #60, #62 ) ;
#167 = COORDINATED_UNIVERSAL_TIME_OFFSET ( 5, 0, .BEHIND. ) ;
#168 = ORIENTED_EDGE ( 'NONE', *, *, #5, .T. ) ;
#169 = ORIENTED_EDGE ( 'NONE', *, *, #8, .F. ) ;
#170 = ORIENTED_EDGE ( 'NONE', *, *, #304, .T. ) ;
#171 = ORIENTED_EDGE ( 'NONE', *, *, #7, .F. ) ;
#172 = ORIENTED_EDGE ( 'NONE', *, *, #289, .T. ) ;
#173 = ORIENTED_EDGE ( 'NONE', *, *, #289, .F. ) ;
#174 = ORIENTED_EDGE ( 'NONE', *, *, #3, .T. ) ;
#175 = APPROVAL_STATUS ( 'not_yet_approved' ) ;
#176 = APPROVAL_ROLE ( '' ) ;
#177 = PERSON_AND_ORGANIZATION_ROLE ( 'creator' ) ;
#178 = DATE_TIME_ROLE ( 'creation_date' ) ;
#179 = APPROVAL_STATUS ( 'not_yet_approved' ) ;
#180 = APPROVAL_ROLE ( '' ) ;
#181 = PERSON_AND_ORGANIZATION_ROLE ( 'creator' ) ;
#182 = PERSON_AND_ORGANIZATION_ROLE ( 'design_supplier' ) ;
#183 = SECURITY_CLASSIFICATION_LEVEL ( 'unclassified' ) ;
#184 = PERSON_AND_ORGANIZATION_ROLE ( 'classification_officer' ) ;
#185 = DATE_TIME_ROLE ( 'classification_date' ) ;
#186 = APPROVAL_STATUS ( 'not_yet_approved' ) ;
#187 = APPROVAL_ROLE ( '' ) ;
#188 = ORIENTED_EDGE ( 'NONE', *, *, #5, .F. ) ;
#189 = ORIENTED_EDGE ( 'NONE', *, *, #7, .T. ) ;
#190 = ORIENTED_EDGE ( 'NONE', *, *, #8, .T. ) ;
#191 = ORIENTED_EDGE ( 'NONE', *, *, #9, .F. ) ;
#192 = ORIENTED_EDGE ( 'NONE', *, *, #12, .T. ) ;
#193 = ORIENTED_EDGE ( 'NONE', *, *, #10, .F. ) ;
#194 = ORIENTED_EDGE ( 'NONE', *, *, #12, .F. ) ;
#195 = EDGE_CURVE ( 'NONE', #102, #112, #137, .T. ) ;
#196 = ORIENTED_EDGE ( 'NONE', *, *, #13, .T. ) ;
#197 = ORIENTED_EDGE ( 'NONE', *, *, #268, .F. ) ;
#198 = ORIENTED_EDGE ( 'NONE', *, *, #11, .F. ) ;
#199 = ORIENTED_EDGE ( 'NONE', *, *, #10, .T. ) ;
#200 = ORIENTED_EDGE ( 'NONE', *, *, #195, .T. ) ;
#201 = DIRECTION ( 'NONE',  ( 0.0000000000000000000, -0.7071067811864346600, 0.7071067811866603700 ) ) ;
#202 = APPLICATION_PROTOCOL_DEFINITION ( 'international standard', 'config_control_design', 1994, #265 ) ;
#203 = CARTESIAN_POINT ( 'NONE',  ( 0.0000000000000000000, 5.756137895044965900E-015, 0.02927542595722896000 ) ) ;
#204 = CARTESIAN_POINT ( 'NONE',  ( 0.0000000000000000000, -0.4999999999999987800, -0.03366141732275335800 ) ) ;
#205 = DIRECTION ( 'NONE',  ( -1.000000000000000000, 0.0000000000000000000, 0.0000000000000000000 ) ) ;
#206 = DIRECTION ( 'NONE',  ( 0.0000000000000000000, 0.0000000000000000000, 1.000000000000000000 ) ) ;
#207 = CARTESIAN_POINT ( 'NONE',  ( 0.0000000000000000000, -3.391264858805818900E-015, 0.04153543307086725300 ) ) ;
#208 = CARTESIAN_POINT ( 'NONE',  ( 6.075019554825449900E-017, 0.4921259842519684600, -0.04153543307086614300 ) ) ;
#209 = CARTESIAN_POINT ( 'NONE',  ( 0.0000000000000000000, 6.400701962346880400E-016, -0.03366141732279399900 ) ) ;
#210 = CARTESIAN_POINT ( 'NONE',  ( 0.0000000000000000000, 0.5000000000000000000, -0.03366141732283464700 ) ) ;
#211 = CARTESIAN_POINT ( 'NONE',  ( 6.123233995736758600E-017, -0.4999999999999987800, -0.03366141732275335800 ) ) ;
#212 = CARTESIAN_POINT ( 'NONE',  ( 0.0000000000000000000, 0.4921259842519684600, 0.03714944170521981100 ) ) ;
#213 = DIRECTION ( 'NONE',  ( 0.0000000000000000000, 8.128891492138420400E-014, 1.000000000000000000 ) ) ;
#214 = DIRECTION ( 'NONE',  ( 0.0000000000000000000, -1.000000000000000000, 8.128955186147233200E-014 ) ) ;
#215 = DIRECTION ( 'NONE',  ( 0.0000000000000000000, -1.000000000000000000, 8.128955186147233200E-014 ) ) ;
#216 = DIRECTION ( 'NONE',  ( 0.0000000000000000000, 8.128891492138420400E-014, 1.000000000000000000 ) ) ;
#217 = DIRECTION ( 'NONE',  ( 1.000000000000000000, 0.0000000000000000000, -0.0000000000000000000 ) ) ;
#218 = CARTESIAN_POINT ( 'NONE',  ( 0.0000000000000000000, 6.400701962346880400E-016, -0.03366141732279399900 ) ) ;
#219 = CARTESIAN_POINT ( 'NONE',  ( 0.0000000000000000000, 3.371312364363858900E-015, -27.56992125984252700 ) ) ;
#220 = DIRECTION ( 'NONE',  ( 1.000000000000000000, 0.0000000000000000000, -0.0000000000000000000 ) ) ;
#221 = CARTESIAN_POINT ( 'NONE',  ( 0.0000000000000000000, 3.371312364363858900E-015, -27.56992125984252700 ) ) ;
#222 = DIRECTION ( 'NONE',  ( 0.0000000000000000000, 1.000000000000000000, 3.166045774748745500E-016 ) ) ;
#223 = CARTESIAN_POINT ( 'NONE',  ( 0.0000000000000000000, 1.542811154421894300E-017, -0.04153543307086621900 ) ) ;
#224 = PLANE ( 'NONE',  #25 ) ;
#225 = DIRECTION ( 'NONE',  ( 0.0000000000000000000, 1.000000000000000000, 3.166045774748745500E-016 ) ) ;
#226 = DIRECTION ( 'NONE',  ( 0.0000000000000000000, 1.000000000000000000, -8.128914208427424100E-014 ) ) ;
#227 = DIRECTION ( 'NONE',  ( 0.0000000000000000000, 1.000000000000000000, 3.073328992872296400E-016 ) ) ;
#228 = DIRECTION ( 'NONE',  ( -0.0000000000000000000, 3.061515884555943100E-016, -1.000000000000000000 ) ) ;
#229 = DIRECTION ( 'NONE',  ( 0.0000000000000000000, 1.000000000000000000, 3.061515884555943100E-016 ) ) ;
#230 = DIRECTION ( 'NONE',  ( -0.0000000000000000000, -8.128891492138420400E-014, -1.000000000000000000 ) ) ;
#231 = CARTESIAN_POINT ( 'NONE',  ( 0.0000000000000000000, 6.396208091276285600E-015, 0.03714944170525982100 ) ) ;
#232 = DIRECTION ( 'NONE',  ( -0.0000000000000000000, 3.061515884555943100E-016, -1.000000000000000000 ) ) ;
#233 = DIRECTION ( 'NONE',  ( 0.0000000000000000000, 1.000000000000000000, 3.073328992872296400E-016 ) ) ;
#234 = CARTESIAN_POINT ( 'NONE',  ( 0.0000000000000000000, 1.542811154421892200E-017, -0.04153543307086614300 ) ) ;
#235 = DIRECTION ( 'NONE',  ( -0.0000000000000000000, 3.061515884555943100E-016, -1.000000000000000000 ) ) ;
#236 = DIRECTION ( 'NONE',  ( 0.0000000000000000000, 1.000000000000000000, -8.128914208427424100E-014 ) ) ;
#237 = CARTESIAN_POINT ( 'NONE',  ( 0.0000000000000000000, 1.542811154421892200E-017, -0.04153543307086614300 ) ) ;
#238 = DIRECTION ( 'NONE',  ( -0.0000000000000000000, -8.128891492138420400E-014, -1.000000000000000000 ) ) ;
#239 = CARTESIAN_POINT ( 'NONE',  ( 0.0000000000000000000, 0.5000000000000000000, -0.04153543307086599000 ) ) ;
#240 = CARTESIAN_POINT ( 'NONE',  ( 0.0000000000000000000, 6.396208091276285600E-015, 0.03714944170525982100 ) ) ;
#241 = CARTESIAN_POINT ( 'NONE',  ( 0.0000000000000000000, 0.0000000000000000000, 0.0000000000000000000 ) ) ;
#242 = CARTESIAN_POINT ( 'NONE',  ( 0.0000000000000000000, 6.396208091276285600E-015, 0.03714944170525982100 ) ) ;
#243 = DIRECTION ( 'NONE',  ( -0.0000000000000000000, -8.128891492138420400E-014, -1.000000000000000000 ) ) ;
#244 = DIRECTION ( 'NONE',  ( 0.0000000000000000000, 1.000000000000000000, -8.128914208427424100E-014 ) ) ;
#245 = DIRECTION ( 'NONE',  ( 0.0000000000000000000, 0.0000000000000000000, 1.000000000000000000 ) ) ;
#246 = CARTESIAN_POINT ( 'NONE',  ( 0.0000000000000000000, 5.756137895044965900E-015, 0.02927542595722896000 ) ) ;
#247 = DIRECTION ( 'NONE',  ( -0.0000000000000000000, -8.128891492138420400E-014, -1.000000000000000000 ) ) ;
#248 = DIRECTION ( 'NONE',  ( 0.0000000000000000000, 1.000000000000000000, -8.128955186147317700E-014 ) ) ;
#249 = DIRECTION ( 'NONE',  ( -0.0000000000000000000, 3.061515884555943100E-016, -1.000000000000000000 ) ) ;
#250 = CARTESIAN_POINT ( 'NONE',  ( 0.0000000000000000000, 3.264404611774205300E-027, -0.04153543307082613300 ) ) ;
#251 = DIRECTION ( 'NONE',  ( -0.0000000000000000000, -8.128891492138420400E-014, -1.000000000000000000 ) ) ;
#252 = DIRECTION ( 'NONE',  ( 0.0000000000000000000, 1.000000000000000000, -8.128914208427318000E-014 ) ) ;
#253 = CARTESIAN_POINT ( 'NONE',  ( 0.0000000000000000000, 6.400701962346880400E-016, -0.03366141732279399900 ) ) ;
#254 = DIRECTION ( 'NONE',  ( -0.0000000000000000000, -8.128891492138420400E-014, -1.000000000000000000 ) ) ;
#255 = DIRECTION ( 'NONE',  ( 0.0000000000000000000, 1.000000000000000000, -8.128955186147233200E-014 ) ) ;
#256 =( LENGTH_UNIT ( ) NAMED_UNIT ( * ) SI_UNIT ( $, .METRE. ) );
#257 =( CONVERSION_BASED_UNIT ( 'INCH', #151 ) LENGTH_UNIT ( ) NAMED_UNIT ( #122 ) );
#258 =( NAMED_UNIT ( * ) PLANE_ANGLE_UNIT ( ) SI_UNIT ( $, .RADIAN. ) );
#259 =( NAMED_UNIT ( * ) SI_UNIT ( $, .STERADIAN. ) SOLID_ANGLE_UNIT ( ) );
#260 = APPLICATION_PROTOCOL_DEFINITION ( 'international standard', 'config_control_design', 1994, #261 ) ;
#261 = APPLICATION_CONTEXT ( 'configuration controlled 3d designs of mechanical parts and assemblies' ) ;
#262 = DIRECTION ( 'NONE',  ( 1.000000000000000000, 0.0000000000000000000, 0.0000000000000000000 ) ) ;
#263 = MECHANICAL_CONTEXT ( 'NONE', #261, 'mechanical' ) ;
#264 = PERSON_AND_ORGANIZATION_ROLE ( 'design_owner' ) ;
#265 = APPLICATION_CONTEXT ( 'configuration controlled 3d designs of mechanical parts and assemblies' ) ;
#266 = DIRECTION ( 'NONE',  ( 0.0000000000000000000, 1.000000000000000000, -8.128955186147317700E-014 ) ) ;
#267 = DIRECTION ( 'NONE',  ( -0.0000000000000000000, -8.128891492138420400E-014, -1.000000000000000000 ) ) ;
#268 = EDGE_CURVE ( 'NONE', #103, #108, #158, .T. ) ;
#269 = LOCAL_TIME ( 10, 52, 32.00000000000000000, #271 ) ;
#270 = DATE_AND_TIME ( #273, #269 ) ;
#271 = COORDINATED_UNIVERSAL_TIME_OFFSET ( 5, 0, .BEHIND. ) ;
#272 = APPROVAL_DATE_TIME ( #270, #49 ) ;
#273 = CALENDAR_DATE ( 2014, 22, 4 ) ;
#274 = DIRECTION ( 'NONE',  ( 8.659560562355633000E-017, -0.7071067811866621500, -0.7071067811864328900 ) ) ;
#275 = CARTESIAN_POINT ( 'NONE',  ( 6.026805113914061000E-017, -0.4921259842519556400, 0.03714944170529982400 ) ) ;
#276 = CARTESIAN_POINT ( 'NONE',  ( 0.0000000000000000000, 0.4921259842519684600, 0.03714944170521981100 ) ) ;
#277 = ORIENTED_EDGE ( 'NONE', *, *, #13, .F. ) ;
#278 = ORIENTED_EDGE ( 'NONE', *, *, #11, .T. ) ;
#279 = ORIENTED_EDGE ( 'NONE', *, *, #9, .T. ) ;
#280 = EDGE_LOOP ( 'NONE', ( #279, #190, #194, #193 ) ) ;
#281 = ORIENTED_EDGE ( 'NONE', *, *, #6, .T. ) ;
#282 = CALENDAR_DATE ( 2014, 22, 4 ) ;
#283 = DATE_AND_TIME ( #282, #165 ) ;
#284 = PERSON_AND_ORGANIZATION ( #60, #62 ) ;
#285 = APPROVAL_PERSON_ORGANIZATION ( #284, #49, #187 ) ;
#286 = MANIFOLD_SOLID_BREP ( 'TTN023930-1-solid1', #111 ) ;
#287 = ADVANCED_BREP_SHAPE_REPRESENTATION ( 'TTN023918-E0W', ( #286, #34 ), #33 ) ;
#288 = UNCERTAINTY_MEASURE_WITH_UNIT (LENGTH_MEASURE( 1.000000000000000100E-005 ), #257, 'distance_accuracy_value', 'NONE');
#289 = EDGE_CURVE ( 'NONE', #105, #104, #130, .T. ) ;
#290 = CARTESIAN_POINT ( 'NONE',  ( 6.123233995736694500E-017, -0.4999999999999884500, 0.02927542595726960500 ) ) ;
#291 = CARTESIAN_POINT ( 'NONE',  ( 0.0000000000000000000, 3.371312364363858900E-015, -27.56992125984252700 ) ) ;
#292 = DIRECTION ( 'NONE',  ( 1.000000000000000000, 1.224646799147353200E-016, 3.749275628560213600E-032 ) ) ;
#293 = ORIENTED_EDGE ( 'NONE', *, *, #4, .F. ) ;
#294 = ORIENTED_EDGE ( 'NONE', *, *, #3, .F. ) ;
#295 = ORIENTED_EDGE ( 'NONE', *, *, #4, .T. ) ;
#296 = ORIENTED_EDGE ( 'NONE', *, *, #303, .F. ) ;
#297 = ORIENTED_EDGE ( 'NONE', *, *, #303, .T. ) ;
#298 = ORIENTED_EDGE ( 'NONE', *, *, #304, .F. ) ;
#299 = ORIENTED_EDGE ( 'NONE', *, *, #268, .T. ) ;
#300 = ORIENTED_EDGE ( 'NONE', *, *, #6, .F. ) ;
#301 = CARTESIAN_POINT ( 'NONE',  ( 0.0000000000000000000, -0.4921259842519684600, -0.04153543307078613100 ) ) ;
#302 = DIRECTION ( 'NONE',  ( -1.224646799147353200E-016, 1.000000000000000000, 0.0000000000000000000 ) ) ;
#303 = EDGE_CURVE ( 'NONE', #108, #109, #138, .T. ) ;
#304 = EDGE_CURVE ( 'NONE', #110, #109, #143, .T. ) ;
ENDSEC;
END-ISO-10303-21;
