ISO-10303-21;
HEADER;
FILE_DESCRIPTION (( 'STEP AP203' ),
    '1' );
FILE_NAME ('Web Model 84486.STEP',
    '2017-02-01T15:50:20',
    ( '' ),
    ( '' ),
    'SwSTEP 2.0',
    'SolidWorks 2016',
    '' );
FILE_SCHEMA (( 'CONFIG_CONTROL_DESIGN' ));
ENDSEC;

DATA;
#1 = LOCAL_TIME ( 10, 50, 20.00000000000000000, #124 ) ;
#2 = CALENDAR_DATE ( 2017, 1, 2 ) ;
#3 = CC_DESIGN_APPROVAL ( #9, ( #116 ) ) ;
#4 = CARTESIAN_POINT ( 'NONE',  ( 0.0000000000000000000, 0.0000000000000000000, 0.0000000000000000000 ) ) ;
#5 = DIRECTION ( 'NONE',  ( 1.000000000000000000, 0.0000000000000000000, 0.0000000000000000000 ) ) ;
#6 = CALENDAR_DATE ( 2017, 1, 2 ) ;
#7 = DIRECTION ( 'NONE',  ( -1.000000000000000000, 0.0000000000000000000, 0.0000000000000000000 ) ) ;
#8 = PLANE ( 'NONE',  #166 ) ;
#9 = APPROVAL ( #128, 'UNSPECIFIED' ) ;
#10 = APPROVAL_ROLE ( '' ) ;
#11 = PERSON_AND_ORGANIZATION_ROLE ( 'design_supplier' ) ;
#12 = PERSON_AND_ORGANIZATION ( #82, #148 ) ;
#13 = CC_DESIGN_APPROVAL ( #58, ( #101 ) ) ;
#14 = DATE_AND_TIME ( #129, #57 ) ;
#15 = FACE_OUTER_BOUND ( 'NONE', #118, .T. ) ;
#16 = SHAPE_DEFINITION_REPRESENTATION ( #103, #117 ) ;
#17 = AXIS2_PLACEMENT_3D ( 'NONE', #21, #81, #5 ) ;
#18 = ADVANCED_FACE ( 'NONE', ( #15 ), #8, .T. ) ;
#19 = CARTESIAN_POINT ( 'NONE',  ( 0.0000000000000000000, 0.0000000000000000000, 2.000000000000000000 ) ) ;
#20 = LINE ( 'NONE', #154, #31 ) ;
#21 = CARTESIAN_POINT ( 'NONE',  ( 0.0000000000000000000, 0.0000000000000000000, 2.000000000000000000 ) ) ;
#22 = CARTESIAN_POINT ( 'NONE',  ( 10.00000000000000000, 1.224646799147353300E-015, 2.000000000000000000 ) ) ;
#23 = CARTESIAN_POINT ( 'NONE',  ( -10.00000000000000000, 0.0000000000000000000, 2.000000000000000000 ) ) ;
#24 = FACE_OUTER_BOUND ( 'NONE', #172, .T. ) ;
#25 = PERSON_AND_ORGANIZATION_ROLE ( 'design_owner' ) ;
#26 = EDGE_CURVE ( 'NONE', #66, #74, #135, .T. ) ;
#27 = AXIS2_PLACEMENT_3D ( 'NONE', #140, #157, #38 ) ;
#28 = MANIFOLD_SOLID_BREP ( 'Extrude1', #131 ) ;
#29 = ORIENTED_EDGE ( 'NONE', *, *, #26, .F. ) ;
#30 = EDGE_CURVE ( 'NONE', #64, #48, #120, .T. ) ;
#31 = VECTOR ( 'NONE', #78, 1000.000000000000000 ) ;
#32 = ADVANCED_FACE ( 'NONE', ( #90 ), #142, .F. ) ;
#33 = DIRECTION ( 'NONE',  ( 1.000000000000000000, 0.0000000000000000000, 0.0000000000000000000 ) ) ;
#34 = DIRECTION ( 'NONE',  ( 0.0000000000000000000, 0.0000000000000000000, 1.000000000000000000 ) ) ;
#35 =( LENGTH_UNIT ( ) NAMED_UNIT ( * ) SI_UNIT ( .MILLI., .METRE. ) );
#36 = PERSON_AND_ORGANIZATION ( #82, #148 ) ;
#37 = APPROVAL_DATE_TIME ( #47, #121 ) ;
#38 = DIRECTION ( 'NONE',  ( 1.000000000000000000, 0.0000000000000000000, -0.0000000000000000000 ) ) ;
#39 = SECURITY_CLASSIFICATION ( '', '', #99 ) ;
#40 = APPROVAL_STATUS ( 'not_yet_approved' ) ;
#41 = CIRCLE ( 'NONE', #17, 10.00000000000000000 ) ;
#42 = EDGE_CURVE ( 'NONE', #64, #74, #20, .T. ) ;
#43 = DESIGN_CONTEXT ( 'detailed design', #159, 'design' ) ;
#44 = PERSON_AND_ORGANIZATION ( #82, #148 ) ;
#45 = EDGE_CURVE ( 'NONE', #74, #66, #77, .T. ) ;
#46 = PERSON_AND_ORGANIZATION ( #82, #148 ) ;
#47 = DATE_AND_TIME ( #2, #59 ) ;
#48 = VERTEX_POINT ( 'NONE', #126 ) ;
#49 = LOCAL_TIME ( 10, 50, 20.00000000000000000, #141 ) ;
#50 = COORDINATED_UNIVERSAL_TIME_OFFSET ( 5, 0, .BEHIND. ) ;
#51 = DIRECTION ( 'NONE',  ( -0.0000000000000000000, -0.0000000000000000000, -1.000000000000000000 ) ) ;
#52 = PRODUCT ( 'Web Model 84486', 'Web Model 84486', '', ( #113 ) ) ;
#53 = EDGE_LOOP ( 'NONE', ( #151, #29 ) ) ;
#54 = CC_DESIGN_PERSON_AND_ORGANIZATION_ASSIGNMENT ( #137, #161, ( #39 ) ) ;
#55 = CYLINDRICAL_SURFACE ( 'NONE', #105, 10.00000000000000000 ) ;
#56 = DIRECTION ( 'NONE',  ( 1.000000000000000000, 0.0000000000000000000, 0.0000000000000000000 ) ) ;
#57 = LOCAL_TIME ( 10, 50, 20.00000000000000000, #50 ) ;
#58 = APPROVAL ( #40, 'UNSPECIFIED' ) ;
#59 = LOCAL_TIME ( 10, 50, 20.00000000000000000, #92 ) ;
#60 = ORIENTED_EDGE ( 'NONE', *, *, #73, .T. ) ;
#61 = APPROVAL_PERSON_ORGANIZATION ( #80, #121, #136 ) ;
#62 = DIRECTION ( 'NONE',  ( 0.0000000000000000000, 0.0000000000000000000, 1.000000000000000000 ) ) ;
#63 = DIRECTION ( 'NONE',  ( 1.000000000000000000, 0.0000000000000000000, -0.0000000000000000000 ) ) ;
#64 = VERTEX_POINT ( 'NONE', #23 ) ;
#65 = CARTESIAN_POINT ( 'NONE',  ( 10.00000000000000000, 1.224646799147353300E-015, 0.0000000000000000000 ) ) ;
#66 = VERTEX_POINT ( 'NONE', #65 ) ;
#67 = PERSON_AND_ORGANIZATION_ROLE ( 'creator' ) ;
#68 = CC_DESIGN_PERSON_AND_ORGANIZATION_ASSIGNMENT ( #12, #69, ( #101 ) ) ;
#69 = PERSON_AND_ORGANIZATION_ROLE ( 'creator' ) ;
#70 = EDGE_LOOP ( 'NONE', ( #89, #88, #167, #106 ) ) ;
#71 = PRODUCT_RELATED_PRODUCT_CATEGORY ( 'detail', '', ( #52 ) ) ;
#72 = PERSON_AND_ORGANIZATION ( #82, #148 ) ;
#73 = EDGE_CURVE ( 'NONE', #48, #64, #41, .T. ) ;
#74 = VERTEX_POINT ( 'NONE', #94 ) ;
#75 = DATE_AND_TIME ( #6, #1 ) ;
#76 = AXIS2_PLACEMENT_3D ( 'NONE', #19, #62, #33 ) ;
#77 = CIRCLE ( 'NONE', #146, 10.00000000000000000 ) ;
#78 = DIRECTION ( 'NONE',  ( -0.0000000000000000000, -0.0000000000000000000, -1.000000000000000000 ) ) ;
#79 = APPROVAL_PERSON_ORGANIZATION ( #147, #58, #97 ) ;
#80 = PERSON_AND_ORGANIZATION ( #82, #148 ) ;
#81 = DIRECTION ( 'NONE',  ( 0.0000000000000000000, 0.0000000000000000000, 1.000000000000000000 ) ) ;
#82 = PERSON ( 'UNSPECIFIED', 'UNSPECIFIED', 'UNSPECIFIED', ('UNSPECIFIED'), ('UNSPECIFIED'), ('UNSPECIFIED') ) ;
#83 = DIRECTION ( 'NONE',  ( -0.0000000000000000000, -0.0000000000000000000, -1.000000000000000000 ) ) ;
#84 = CC_DESIGN_DATE_AND_TIME_ASSIGNMENT ( #162, #171, ( #39 ) ) ;
#85 = APPROVAL_DATE_TIME ( #75, #9 ) ;
#86 =( GEOMETRIC_REPRESENTATION_CONTEXT ( 3 ) GLOBAL_UNCERTAINTY_ASSIGNED_CONTEXT ( ( #102 ) ) GLOBAL_UNIT_ASSIGNED_CONTEXT ( ( #35, #133, #111 ) ) REPRESENTATION_CONTEXT ( 'NONE', 'WORKASPACE' ) );
#87 = APPLICATION_PROTOCOL_DEFINITION ( 'international standard', 'config_control_design', 1994, #159 ) ;
#88 = ORIENTED_EDGE ( 'NONE', *, *, #168, .T. ) ;
#89 = ORIENTED_EDGE ( 'NONE', *, *, #73, .F. ) ;
#90 = FACE_OUTER_BOUND ( 'NONE', #53, .T. ) ;
#91 = AXIS2_PLACEMENT_3D ( 'NONE', #169, #109, #56 ) ;
#92 = COORDINATED_UNIVERSAL_TIME_OFFSET ( 5, 0, .BEHIND. ) ;
#93 = AXIS2_PLACEMENT_3D ( 'NONE', #108, #51, #158 ) ;
#94 = CARTESIAN_POINT ( 'NONE',  ( -10.00000000000000000, 0.0000000000000000000, 0.0000000000000000000 ) ) ;
#95 = DATE_AND_TIME ( #173, #49 ) ;
#96 = APPLICATION_CONTEXT ( 'configuration controlled 3d designs of mechanical parts and assemblies' ) ;
#97 = APPROVAL_ROLE ( '' ) ;
#98 = CC_DESIGN_DATE_AND_TIME_ASSIGNMENT ( #95, #114, ( #116 ) ) ;
#99 = SECURITY_CLASSIFICATION_LEVEL ( 'unclassified' ) ;
#100 = CALENDAR_DATE ( 2017, 1, 2 ) ;
#101 = PRODUCT_DEFINITION_FORMATION_WITH_SPECIFIED_SOURCE ( 'ANY', '', #52, .NOT_KNOWN. ) ;
#102 = UNCERTAINTY_MEASURE_WITH_UNIT (LENGTH_MEASURE( 1.000000000000000100E-005 ), #35, 'distance_accuracy_value', 'NONE');
#103 = PRODUCT_DEFINITION_SHAPE ( 'NONE', 'NONE',  #116 ) ;
#104 = CYLINDRICAL_SURFACE ( 'NONE', #93, 10.00000000000000000 ) ;
#105 = AXIS2_PLACEMENT_3D ( 'NONE', #156, #83, #7 ) ;
#106 = ORIENTED_EDGE ( 'NONE', *, *, #42, .F. ) ;
#107 = DIRECTION ( 'NONE',  ( 0.0000000000000000000, 0.0000000000000000000, 1.000000000000000000 ) ) ;
#108 = CARTESIAN_POINT ( 'NONE',  ( 0.0000000000000000000, 0.0000000000000000000, 2.000000000000000000 ) ) ;
#109 = DIRECTION ( 'NONE',  ( 0.0000000000000000000, 0.0000000000000000000, 1.000000000000000000 ) ) ;
#110 = CC_DESIGN_PERSON_AND_ORGANIZATION_ASSIGNMENT ( #44, #25, ( #52 ) ) ;
#111 =( NAMED_UNIT ( * ) SI_UNIT ( $, .STERADIAN. ) SOLID_ANGLE_UNIT ( ) );
#112 = APPLICATION_PROTOCOL_DEFINITION ( 'international standard', 'config_control_design', 1994, #96 ) ;
#113 = MECHANICAL_CONTEXT ( 'NONE', #96, 'mechanical' ) ;
#114 = DATE_TIME_ROLE ( 'creation_date' ) ;
#115 = ORIENTED_EDGE ( 'NONE', *, *, #30, .F. ) ;
#116 = PRODUCT_DEFINITION ( 'UNKNOWN', '', #101, #43 ) ;
#117 = ADVANCED_BREP_SHAPE_REPRESENTATION ( 'Web Model 84486', ( #28, #91 ), #86 ) ;
#118 = EDGE_LOOP ( 'NONE', ( #144, #60 ) ) ;
#119 = CC_DESIGN_PERSON_AND_ORGANIZATION_ASSIGNMENT ( #72, #11, ( #101 ) ) ;
#120 = CIRCLE ( 'NONE', #76, 10.00000000000000000 ) ;
#121 = APPROVAL ( #145, 'UNSPECIFIED' ) ;
#122 = COORDINATED_UNIVERSAL_TIME_OFFSET ( 5, 0, .BEHIND. ) ;
#123 = CC_DESIGN_SECURITY_CLASSIFICATION ( #39, ( #101 ) ) ;
#124 = COORDINATED_UNIVERSAL_TIME_OFFSET ( 5, 0, .BEHIND. ) ;
#125 = ADVANCED_FACE ( 'NONE', ( #24 ), #104, .T. ) ;
#126 = CARTESIAN_POINT ( 'NONE',  ( 10.00000000000000000, 1.224646799147353300E-015, 2.000000000000000000 ) ) ;
#127 = CARTESIAN_POINT ( 'NONE',  ( 0.0000000000000000000, 0.0000000000000000000, 2.000000000000000000 ) ) ;
#128 = APPROVAL_STATUS ( 'not_yet_approved' ) ;
#129 = CALENDAR_DATE ( 2017, 1, 2 ) ;
#130 = VECTOR ( 'NONE', #134, 1000.000000000000000 ) ;
#131 = CLOSED_SHELL ( 'NONE', ( #153, #125, #18, #32 ) ) ;
#132 = DIRECTION ( 'NONE',  ( 0.0000000000000000000, 0.0000000000000000000, 1.000000000000000000 ) ) ;
#133 =( NAMED_UNIT ( * ) PLANE_ANGLE_UNIT ( ) SI_UNIT ( $, .RADIAN. ) );
#134 = DIRECTION ( 'NONE',  ( -0.0000000000000000000, -0.0000000000000000000, -1.000000000000000000 ) ) ;
#135 = CIRCLE ( 'NONE', #138, 10.00000000000000000 ) ;
#136 = APPROVAL_ROLE ( '' ) ;
#137 = PERSON_AND_ORGANIZATION ( #82, #148 ) ;
#138 = AXIS2_PLACEMENT_3D ( 'NONE', #4, #107, #155 ) ;
#139 = ORIENTED_EDGE ( 'NONE', *, *, #42, .T. ) ;
#140 = CARTESIAN_POINT ( 'NONE',  ( 0.0000000000000000000, 0.0000000000000000000, 0.0000000000000000000 ) ) ;
#141 = COORDINATED_UNIVERSAL_TIME_OFFSET ( 5, 0, .BEHIND. ) ;
#142 = PLANE ( 'NONE',  #27 ) ;
#143 = CARTESIAN_POINT ( 'NONE',  ( 0.0000000000000000000, 0.0000000000000000000, 0.0000000000000000000 ) ) ;
#144 = ORIENTED_EDGE ( 'NONE', *, *, #30, .T. ) ;
#145 = APPROVAL_STATUS ( 'not_yet_approved' ) ;
#146 = AXIS2_PLACEMENT_3D ( 'NONE', #143, #132, #170 ) ;
#147 = PERSON_AND_ORGANIZATION ( #82, #148 ) ;
#148 = ORGANIZATION ( 'UNSPECIFIED', 'UNSPECIFIED', '' ) ;
#149 = CC_DESIGN_PERSON_AND_ORGANIZATION_ASSIGNMENT ( #36, #67, ( #116 ) ) ;
#150 = APPROVAL_PERSON_ORGANIZATION ( #46, #9, #10 ) ;
#151 = ORIENTED_EDGE ( 'NONE', *, *, #45, .F. ) ;
#152 = APPROVAL_DATE_TIME ( #14, #58 ) ;
#153 = ADVANCED_FACE ( 'NONE', ( #160 ), #55, .T. ) ;
#154 = CARTESIAN_POINT ( 'NONE',  ( -10.00000000000000000, 0.0000000000000000000, 2.000000000000000000 ) ) ;
#155 = DIRECTION ( 'NONE',  ( 1.000000000000000000, 0.0000000000000000000, 0.0000000000000000000 ) ) ;
#156 = CARTESIAN_POINT ( 'NONE',  ( 0.0000000000000000000, 0.0000000000000000000, 2.000000000000000000 ) ) ;
#157 = DIRECTION ( 'NONE',  ( 0.0000000000000000000, 0.0000000000000000000, 1.000000000000000000 ) ) ;
#158 = DIRECTION ( 'NONE',  ( -1.000000000000000000, 0.0000000000000000000, 0.0000000000000000000 ) ) ;
#159 = APPLICATION_CONTEXT ( 'configuration controlled 3d designs of mechanical parts and assemblies' ) ;
#160 = FACE_OUTER_BOUND ( 'NONE', #70, .T. ) ;
#161 = PERSON_AND_ORGANIZATION_ROLE ( 'classification_officer' ) ;
#162 = DATE_AND_TIME ( #100, #165 ) ;
#163 = ORIENTED_EDGE ( 'NONE', *, *, #168, .F. ) ;
#164 = LINE ( 'NONE', #22, #130 ) ;
#165 = LOCAL_TIME ( 10, 50, 20.00000000000000000, #122 ) ;
#166 = AXIS2_PLACEMENT_3D ( 'NONE', #127, #34, #63 ) ;
#167 = ORIENTED_EDGE ( 'NONE', *, *, #26, .T. ) ;
#168 = EDGE_CURVE ( 'NONE', #48, #66, #164, .T. ) ;
#169 = CARTESIAN_POINT ( 'NONE',  ( 0.0000000000000000000, 0.0000000000000000000, 0.0000000000000000000 ) ) ;
#170 = DIRECTION ( 'NONE',  ( 1.000000000000000000, 0.0000000000000000000, 0.0000000000000000000 ) ) ;
#171 = DATE_TIME_ROLE ( 'classification_date' ) ;
#172 = EDGE_LOOP ( 'NONE', ( #163, #115, #139, #174 ) ) ;
#173 = CALENDAR_DATE ( 2017, 1, 2 ) ;
#174 = ORIENTED_EDGE ( 'NONE', *, *, #45, .T. ) ;
#175 = CC_DESIGN_APPROVAL ( #121, ( #39 ) ) ;
ENDSEC;
END-ISO-10303-21;
