ISO-10303-21;
HEADER;
FILE_DESCRIPTION (( 'STEP AP203' ),
    '1' );
FILE_NAME ('34602_36952.step',
    '2017-08-24T13:10:56',
    ( '' ),
    ( '' ),
    'SwSTEP 2.0',
    'SolidWorks 2016',
    '' );
FILE_SCHEMA (( 'CONFIG_CONTROL_DESIGN' ));
ENDSEC;

DATA;
#1 = VECTOR ( 'NONE', #61, 1000.000000000000000 ) ;
#2 = AXIS2_PLACEMENT_3D ( 'NONE', #66, #23, #163 ) ;
#3 = VECTOR ( 'NONE', #87, 1000.000000000000000 ) ;
#4 = DIRECTION ( 'NONE',  ( 1.000000000000000000, 0.0000000000000000000, 0.0000000000000000000 ) ) ;
#5 = CALENDAR_DATE ( 2017, 24, 8 ) ;
#6 = PERSON_AND_ORGANIZATION_ROLE ( 'design_owner' ) ;
#7 = EDGE_CURVE ( 'NONE', #157, #11, #19, .T. ) ;
#8 = DATE_AND_TIME ( #112, #72 ) ;
#9 = FACE_OUTER_BOUND ( 'NONE', #84, .T. ) ;
#10 = APPROVAL_ROLE ( '' ) ;
#11 = VERTEX_POINT ( 'NONE', #45 ) ;
#12 = SECURITY_CLASSIFICATION ( '', '', #40 ) ;
#13 = CYLINDRICAL_SURFACE ( 'NONE', #98, 25.00000000000000000 ) ;
#14 = ORIENTED_EDGE ( 'NONE', *, *, #58, .F. ) ;
#15 = APPROVAL ( #36, 'UNSPECIFIED' ) ;
#16 = UNCERTAINTY_MEASURE_WITH_UNIT (LENGTH_MEASURE( 1.000000000000000100E-005 ), #134, 'distance_accuracy_value', 'NONE');
#17 = EDGE_LOOP ( 'NONE', ( #150, #93, #175, #114 ) ) ;
#18 = ADVANCED_FACE ( 'NONE', ( #48 ), #13, .T. ) ;
#19 = LINE ( 'NONE', #20, #3 ) ;
#20 = CARTESIAN_POINT ( 'NONE',  ( -25.00000000000000000, 0.0000000000000000000, 6.000000000000000000 ) ) ;
#21 = CC_DESIGN_APPROVAL ( #75, ( #12 ) ) ;
#22 = APPLICATION_PROTOCOL_DEFINITION ( 'international standard', 'config_control_design', 1994, #103 ) ;
#23 = DIRECTION ( 'NONE',  ( 0.0000000000000000000, 0.0000000000000000000, 1.000000000000000000 ) ) ;
#24 = CARTESIAN_POINT ( 'NONE',  ( 0.0000000000000000000, 0.0000000000000000000, 6.000000000000000000 ) ) ;
#25 = CIRCLE ( 'NONE', #27, 25.00000000000000000 ) ;
#26 = CARTESIAN_POINT ( 'NONE',  ( 0.0000000000000000000, 0.0000000000000000000, 6.000000000000000000 ) ) ;
#27 = AXIS2_PLACEMENT_3D ( 'NONE', #26, #151, #4 ) ;
#28 = CC_DESIGN_PERSON_AND_ORGANIZATION_ASSIGNMENT ( #59, #107, ( #51 ) ) ;
#29 = PRODUCT_DEFINITION_SHAPE ( 'NONE', 'NONE',  #119 ) ;
#30 = CYLINDRICAL_SURFACE ( 'NONE', #172, 25.00000000000000000 ) ;
#31 = ORGANIZATION ( 'UNSPECIFIED', 'UNSPECIFIED', '' ) ;
#32 = ADVANCED_BREP_SHAPE_REPRESENTATION ( '34602_36952', ( #95, #141 ), #90 ) ;
#33 = AXIS2_PLACEMENT_3D ( 'NONE', #129, #147, #65 ) ;
#34 = PERSON_AND_ORGANIZATION ( #54, #31 ) ;
#35 = COORDINATED_UNIVERSAL_TIME_OFFSET ( 5, 0, .BEHIND. ) ;
#36 = APPROVAL_STATUS ( 'not_yet_approved' ) ;
#37 = COORDINATED_UNIVERSAL_TIME_OFFSET ( 5, 0, .BEHIND. ) ;
#38 = SHAPE_DEFINITION_REPRESENTATION ( #29, #32 ) ;
#39 = COORDINATED_UNIVERSAL_TIME_OFFSET ( 5, 0, .BEHIND. ) ;
#40 = SECURITY_CLASSIFICATION_LEVEL ( 'unclassified' ) ;
#41 = CC_DESIGN_DATE_AND_TIME_ASSIGNMENT ( #8, #69, ( #119 ) ) ;
#42 = COORDINATED_UNIVERSAL_TIME_OFFSET ( 5, 0, .BEHIND. ) ;
#43 = PERSON_AND_ORGANIZATION ( #54, #31 ) ;
#44 = ADVANCED_FACE ( 'NONE', ( #110 ), #30, .T. ) ;
#45 = CARTESIAN_POINT ( 'NONE',  ( -25.00000000000000000, 0.0000000000000000000, 0.0000000000000000000 ) ) ;
#46 = APPROVAL_DATE_TIME ( #171, #15 ) ;
#47 = DIRECTION ( 'NONE',  ( -1.000000000000000000, 0.0000000000000000000, 0.0000000000000000000 ) ) ;
#48 = FACE_OUTER_BOUND ( 'NONE', #120, .T. ) ;
#49 = ORIENTED_EDGE ( 'NONE', *, *, #58, .T. ) ;
#50 = DIRECTION ( 'NONE',  ( 0.0000000000000000000, 0.0000000000000000000, 1.000000000000000000 ) ) ;
#51 = PRODUCT_DEFINITION_FORMATION_WITH_SPECIFIED_SOURCE ( 'ANY', '', #91, .NOT_KNOWN. ) ;
#52 = PERSON_AND_ORGANIZATION_ROLE ( 'creator' ) ;
#53 = PERSON_AND_ORGANIZATION_ROLE ( 'classification_officer' ) ;
#54 = PERSON ( 'UNSPECIFIED', 'UNSPECIFIED', 'UNSPECIFIED', ('UNSPECIFIED'), ('UNSPECIFIED'), ('UNSPECIFIED') ) ;
#55 = LOCAL_TIME ( 9, 10, 56.00000000000000000, #42 ) ;
#56 = EDGE_LOOP ( 'NONE', ( #49, #82 ) ) ;
#57 = PERSON_AND_ORGANIZATION ( #54, #31 ) ;
#58 = EDGE_CURVE ( 'NONE', #157, #89, #25, .T. ) ;
#59 = PERSON_AND_ORGANIZATION ( #54, #31 ) ;
#60 = VERTEX_POINT ( 'NONE', #79 ) ;
#61 = DIRECTION ( 'NONE',  ( -0.0000000000000000000, -0.0000000000000000000, -1.000000000000000000 ) ) ;
#62 = PLANE ( 'NONE',  #33 ) ;
#63 = DATE_AND_TIME ( #123, #55 ) ;
#64 = CIRCLE ( 'NONE', #2, 25.00000000000000000 ) ;
#65 = DIRECTION ( 'NONE',  ( 1.000000000000000000, 0.0000000000000000000, -0.0000000000000000000 ) ) ;
#66 = CARTESIAN_POINT ( 'NONE',  ( 0.0000000000000000000, 0.0000000000000000000, 0.0000000000000000000 ) ) ;
#67 = AXIS2_PLACEMENT_3D ( 'NONE', #115, #142, #131 ) ;
#68 = CALENDAR_DATE ( 2017, 24, 8 ) ;
#69 = DATE_TIME_ROLE ( 'creation_date' ) ;
#70 = CC_DESIGN_PERSON_AND_ORGANIZATION_ASSIGNMENT ( #71, #6, ( #91 ) ) ;
#71 = PERSON_AND_ORGANIZATION ( #54, #31 ) ;
#72 = LOCAL_TIME ( 9, 10, 56.00000000000000000, #127 ) ;
#73 = FACE_OUTER_BOUND ( 'NONE', #56, .T. ) ;
#74 = ORIENTED_EDGE ( 'NONE', *, *, #138, .F. ) ;
#75 = APPROVAL ( #108, 'UNSPECIFIED' ) ;
#76 = LINE ( 'NONE', #106, #1 ) ;
#77 = APPLICATION_PROTOCOL_DEFINITION ( 'international standard', 'config_control_design', 1994, #80 ) ;
#78 = EDGE_CURVE ( 'NONE', #89, #60, #76, .T. ) ;
#79 = CARTESIAN_POINT ( 'NONE',  ( 25.00000000000000000, 3.061616997868383000E-015, 0.0000000000000000000 ) ) ;
#80 = APPLICATION_CONTEXT ( 'configuration controlled 3d designs of mechanical parts and assemblies' ) ;
#81 = EDGE_CURVE ( 'NONE', #89, #157, #168, .T. ) ;
#82 = ORIENTED_EDGE ( 'NONE', *, *, #81, .T. ) ;
#83 = CC_DESIGN_SECURITY_CLASSIFICATION ( #12, ( #51 ) ) ;
#84 = EDGE_LOOP ( 'NONE', ( #125, #74 ) ) ;
#85 = ORIENTED_EDGE ( 'NONE', *, *, #7, .T. ) ;
#86 =( NAMED_UNIT ( * ) SI_UNIT ( $, .STERADIAN. ) SOLID_ANGLE_UNIT ( ) );
#87 = DIRECTION ( 'NONE',  ( -0.0000000000000000000, -0.0000000000000000000, -1.000000000000000000 ) ) ;
#88 = CARTESIAN_POINT ( 'NONE',  ( 25.00000000000000000, 3.061616997868383000E-015, 6.000000000000000000 ) ) ;
#89 = VERTEX_POINT ( 'NONE', #88 ) ;
#90 =( GEOMETRIC_REPRESENTATION_CONTEXT ( 3 ) GLOBAL_UNCERTAINTY_ASSIGNED_CONTEXT ( ( #16 ) ) GLOBAL_UNIT_ASSIGNED_CONTEXT ( ( #134, #162, #86 ) ) REPRESENTATION_CONTEXT ( 'NONE', 'WORKASPACE' ) );
#91 = PRODUCT ( '34602_36952', '34602_36952', '', ( #135 ) ) ;
#92 = PERSON_AND_ORGANIZATION ( #54, #31 ) ;
#93 = ORIENTED_EDGE ( 'NONE', *, *, #78, .T. ) ;
#94 = APPROVAL ( #139, 'UNSPECIFIED' ) ;
#95 = MANIFOLD_SOLID_BREP ( 'Boss-Extrude1', #153 ) ;
#96 = ORIENTED_EDGE ( 'NONE', *, *, #78, .F. ) ;
#97 = APPROVAL_PERSON_ORGANIZATION ( #43, #15, #133 ) ;
#98 = AXIS2_PLACEMENT_3D ( 'NONE', #102, #117, #105 ) ;
#99 = APPROVAL_DATE_TIME ( #166, #94 ) ;
#100 = LOCAL_TIME ( 9, 10, 56.00000000000000000, #35 ) ;
#101 = ADVANCED_FACE ( 'NONE', ( #9 ), #62, .F. ) ;
#102 = CARTESIAN_POINT ( 'NONE',  ( 0.0000000000000000000, 0.0000000000000000000, 6.000000000000000000 ) ) ;
#103 = APPLICATION_CONTEXT ( 'configuration controlled 3d designs of mechanical parts and assemblies' ) ;
#104 = DIRECTION ( 'NONE',  ( 0.0000000000000000000, 0.0000000000000000000, 1.000000000000000000 ) ) ;
#105 = DIRECTION ( 'NONE',  ( -1.000000000000000000, 0.0000000000000000000, 0.0000000000000000000 ) ) ;
#106 = CARTESIAN_POINT ( 'NONE',  ( 25.00000000000000000, 3.061616997868383000E-015, 6.000000000000000000 ) ) ;
#107 = PERSON_AND_ORGANIZATION_ROLE ( 'creator' ) ;
#108 = APPROVAL_STATUS ( 'not_yet_approved' ) ;
#109 = PERSON_AND_ORGANIZATION ( #54, #31 ) ;
#110 = FACE_OUTER_BOUND ( 'NONE', #17, .T. ) ;
#111 = AXIS2_PLACEMENT_3D ( 'NONE', #164, #104, #121 ) ;
#112 = CALENDAR_DATE ( 2017, 24, 8 ) ;
#113 = CC_DESIGN_PERSON_AND_ORGANIZATION_ASSIGNMENT ( #57, #170, ( #51 ) ) ;
#114 = ORIENTED_EDGE ( 'NONE', *, *, #7, .F. ) ;
#115 = CARTESIAN_POINT ( 'NONE',  ( 0.0000000000000000000, 0.0000000000000000000, 6.000000000000000000 ) ) ;
#116 = CARTESIAN_POINT ( 'NONE',  ( 0.0000000000000000000, 0.0000000000000000000, 0.0000000000000000000 ) ) ;
#117 = DIRECTION ( 'NONE',  ( -0.0000000000000000000, -0.0000000000000000000, -1.000000000000000000 ) ) ;
#118 = LOCAL_TIME ( 9, 10, 56.00000000000000000, #37 ) ;
#119 = PRODUCT_DEFINITION ( 'UNKNOWN', '', #51, #136 ) ;
#120 = EDGE_LOOP ( 'NONE', ( #96, #14, #85, #161 ) ) ;
#121 = DIRECTION ( 'NONE',  ( 1.000000000000000000, 0.0000000000000000000, 0.0000000000000000000 ) ) ;
#122 = PLANE ( 'NONE',  #126 ) ;
#123 = CALENDAR_DATE ( 2017, 24, 8 ) ;
#124 = APPROVAL_PERSON_ORGANIZATION ( #149, #75, #167 ) ;
#125 = ORIENTED_EDGE ( 'NONE', *, *, #156, .F. ) ;
#126 = AXIS2_PLACEMENT_3D ( 'NONE', #159, #50, #173 ) ;
#127 = COORDINATED_UNIVERSAL_TIME_OFFSET ( 5, 0, .BEHIND. ) ;
#128 = CC_DESIGN_APPROVAL ( #15, ( #119 ) ) ;
#129 = CARTESIAN_POINT ( 'NONE',  ( 0.0000000000000000000, 0.0000000000000000000, 0.0000000000000000000 ) ) ;
#130 = CIRCLE ( 'NONE', #111, 25.00000000000000000 ) ;
#131 = DIRECTION ( 'NONE',  ( 1.000000000000000000, 0.0000000000000000000, 0.0000000000000000000 ) ) ;
#132 = DIRECTION ( 'NONE',  ( 0.0000000000000000000, 0.0000000000000000000, 1.000000000000000000 ) ) ;
#133 = APPROVAL_ROLE ( '' ) ;
#134 =( LENGTH_UNIT ( ) NAMED_UNIT ( * ) SI_UNIT ( .MILLI., .METRE. ) );
#135 = MECHANICAL_CONTEXT ( 'NONE', #80, 'mechanical' ) ;
#136 = DESIGN_CONTEXT ( 'detailed design', #103, 'design' ) ;
#137 = CC_DESIGN_PERSON_AND_ORGANIZATION_ASSIGNMENT ( #109, #52, ( #119 ) ) ;
#138 = EDGE_CURVE ( 'NONE', #60, #11, #130, .T. ) ;
#139 = APPROVAL_STATUS ( 'not_yet_approved' ) ;
#140 = LOCAL_TIME ( 9, 10, 56.00000000000000000, #39 ) ;
#141 = AXIS2_PLACEMENT_3D ( 'NONE', #116, #132, #145 ) ;
#142 = DIRECTION ( 'NONE',  ( 0.0000000000000000000, 0.0000000000000000000, 1.000000000000000000 ) ) ;
#143 = CALENDAR_DATE ( 2017, 24, 8 ) ;
#144 = DIRECTION ( 'NONE',  ( -0.0000000000000000000, -0.0000000000000000000, -1.000000000000000000 ) ) ;
#145 = DIRECTION ( 'NONE',  ( 1.000000000000000000, 0.0000000000000000000, 0.0000000000000000000 ) ) ;
#146 = CC_DESIGN_APPROVAL ( #94, ( #51 ) ) ;
#147 = DIRECTION ( 'NONE',  ( 0.0000000000000000000, 0.0000000000000000000, 1.000000000000000000 ) ) ;
#148 = CARTESIAN_POINT ( 'NONE',  ( -25.00000000000000000, 0.0000000000000000000, 6.000000000000000000 ) ) ;
#149 = PERSON_AND_ORGANIZATION ( #54, #31 ) ;
#150 = ORIENTED_EDGE ( 'NONE', *, *, #81, .F. ) ;
#151 = DIRECTION ( 'NONE',  ( 0.0000000000000000000, 0.0000000000000000000, 1.000000000000000000 ) ) ;
#152 = PRODUCT_RELATED_PRODUCT_CATEGORY ( 'detail', '', ( #91 ) ) ;
#153 = CLOSED_SHELL ( 'NONE', ( #44, #18, #160, #101 ) ) ;
#154 = DATE_TIME_ROLE ( 'classification_date' ) ;
#155 = APPROVAL_PERSON_ORGANIZATION ( #92, #94, #10 ) ;
#156 = EDGE_CURVE ( 'NONE', #11, #60, #64, .T. ) ;
#157 = VERTEX_POINT ( 'NONE', #148 ) ;
#158 = CC_DESIGN_DATE_AND_TIME_ASSIGNMENT ( #63, #154, ( #12 ) ) ;
#159 = CARTESIAN_POINT ( 'NONE',  ( 0.0000000000000000000, 0.0000000000000000000, 6.000000000000000000 ) ) ;
#160 = ADVANCED_FACE ( 'NONE', ( #73 ), #122, .T. ) ;
#161 = ORIENTED_EDGE ( 'NONE', *, *, #156, .T. ) ;
#162 =( NAMED_UNIT ( * ) PLANE_ANGLE_UNIT ( ) SI_UNIT ( $, .RADIAN. ) );
#163 = DIRECTION ( 'NONE',  ( 1.000000000000000000, 0.0000000000000000000, 0.0000000000000000000 ) ) ;
#164 = CARTESIAN_POINT ( 'NONE',  ( 0.0000000000000000000, 0.0000000000000000000, 0.0000000000000000000 ) ) ;
#165 = DATE_AND_TIME ( #5, #118 ) ;
#166 = DATE_AND_TIME ( #143, #140 ) ;
#167 = APPROVAL_ROLE ( '' ) ;
#168 = CIRCLE ( 'NONE', #67, 25.00000000000000000 ) ;
#169 = CC_DESIGN_PERSON_AND_ORGANIZATION_ASSIGNMENT ( #34, #53, ( #12 ) ) ;
#170 = PERSON_AND_ORGANIZATION_ROLE ( 'design_supplier' ) ;
#171 = DATE_AND_TIME ( #68, #100 ) ;
#172 = AXIS2_PLACEMENT_3D ( 'NONE', #24, #144, #47 ) ;
#173 = DIRECTION ( 'NONE',  ( 1.000000000000000000, 0.0000000000000000000, -0.0000000000000000000 ) ) ;
#174 = APPROVAL_DATE_TIME ( #165, #75 ) ;
#175 = ORIENTED_EDGE ( 'NONE', *, *, #138, .T. ) ;
ENDSEC;
END-ISO-10303-21;
