ISO-10303-21;
HEADER;
FILE_DESCRIPTION (( 'STEP AP203' ),
    '1' );
FILE_NAME ('20102-E0W.STEP',
    '2015-07-10T15:26:04',
    ( 'Admin' ),
    ( '' ),
    'SwSTEP 2.0',
    'SolidWorks 2014',
    '' );
FILE_SCHEMA (( 'CONFIG_CONTROL_DESIGN' ));
ENDSEC;

DATA;
#1 = FACE_OUTER_BOUND ( 'NONE', #173, .T. ) ;
#2 = DIRECTION ( 'NONE',  ( -1.224646799147353200E-016, 1.000000000000000000, 0.0000000000000000000 ) ) ;
#3 = AXIS2_PLACEMENT_3D ( 'NONE', #172, #91, #86 ) ;
#4 = ORIENTED_EDGE ( 'NONE', *, *, #227, .F. ) ;
#5 = DIRECTION ( 'NONE',  ( 1.000000000000000000, 0.0000000000000000000, -0.0000000000000000000 ) ) ;
#6 = ORIENTED_EDGE ( 'NONE', *, *, #175, .T. ) ;
#7 = FACE_OUTER_BOUND ( 'NONE', #267, .T. ) ;
#8 = COORDINATED_UNIVERSAL_TIME_OFFSET ( 5, 0, .BEHIND. ) ;
#9 = VERTEX_POINT ( 'NONE', #103 ) ;
#10 = PERSON_AND_ORGANIZATION ( #64, #47 ) ;
#11 = PERSON_AND_ORGANIZATION ( #64, #47 ) ;
#12 = ORIENTED_EDGE ( 'NONE', *, *, #175, .F. ) ;
#13 = CC_DESIGN_PERSON_AND_ORGANIZATION_ASSIGNMENT ( #10, #99, ( #75 ) ) ;
#14 = VECTOR ( 'NONE', #68, 999.9999999999998900 ) ;
#15 = AXIS2_PLACEMENT_3D ( 'NONE', #57, #84, #100 ) ;
#16 = CARTESIAN_POINT ( 'NONE',  ( 7.776507174585691200E-016, -6.349999999999998800, 0.3411890876384752200 ) ) ;
#17 = DIRECTION ( 'NONE',  ( 1.000000000000000000, 1.224646799147353200E-016, 3.749275628560213600E-032 ) ) ;
#18 = VERTEX_POINT ( 'NONE', #122 ) ;
#19 = PERSON_AND_ORGANIZATION ( #64, #47 ) ;
#20 = ADVANCED_FACE ( 'NONE', ( #193 ), #182, .T. ) ;
#21 = DIRECTION ( 'NONE',  ( 0.0000000000000000000, 1.000000000000000000, 3.073328992872296400E-016 ) ) ;
#22 = CIRCLE ( 'NONE', #3, 6.208578643762689500 ) ;
#23 = AXIS2_PLACEMENT_3D ( 'NONE', #199, #32, #119 ) ;
#24 = CARTESIAN_POINT ( 'NONE',  ( 0.0000000000000000000, 6.349999999999998800, 0.3411890876384791600 ) ) ;
#25 = APPROVAL ( #261, 'UNSPECIFIED' ) ;
#26 = AXIS2_PLACEMENT_3D ( 'NONE', #170, #140, #54 ) ;
#27 = CARTESIAN_POINT ( 'NONE',  ( 0.0000000000000000000, 1.851972188885581300E-015, -16.69800000000000000 ) ) ;
#28 = CARTESIAN_POINT ( 'NONE',  ( 7.776507174585692200E-016, -6.349999999999998800, -1.428578643762693700 ) ) ;
#29 = FACE_OUTER_BOUND ( 'NONE', #250, .T. ) ;
#30 = CARTESIAN_POINT ( 'NONE',  ( 0.0000000000000000000, 5.761772894734286600E-016, -1.570000000000001000 ) ) ;
#31 = VECTOR ( 'NONE', #213, 999.9999999999998900 ) ;
#32 = DIRECTION ( 'NONE',  ( -0.0000000000000000000, 3.061515884555943100E-016, -1.000000000000000000 ) ) ;
#33 = LINE ( 'NONE', #276, #14 ) ;
#34 = PERSON_AND_ORGANIZATION ( #64, #47 ) ;
#35 = CARTESIAN_POINT ( 'NONE',  ( 0.0000000000000000000, 5.761772894734283700E-016, -1.570000000000000100 ) ) ;
#36 = PRODUCT_RELATED_PRODUCT_CATEGORY ( 'detail', '', ( #215 ) ) ;
#37 = CARTESIAN_POINT ( 'NONE',  ( 0.0000000000000000000, 6.350000000000000500, -1.569999999999998100 ) ) ;
#38 = ADVANCED_FACE ( 'NONE', ( #272 ), #128, .T. ) ;
#39 = ORIENTED_EDGE ( 'NONE', *, *, #201, .T. ) ;
#40 = MECHANICAL_CONTEXT ( 'NONE', #136, 'mechanical' ) ;
#41 = EDGE_CURVE ( 'NONE', #169, #222, #176, .T. ) ;
#42 = CIRCLE ( 'NONE', #157, 6.349999999999999600 ) ;
#43 = AXIS2_PLACEMENT_3D ( 'NONE', #238, #274, #93 ) ;
#44 = CARTESIAN_POINT ( 'NONE',  ( 7.603315963338587500E-016, -6.208578643762688600, 0.4826104438757847200 ) ) ;
#45 = VERTEX_POINT ( 'NONE', #16 ) ;
#46 = CALENDAR_DATE ( 2015, 10, 7 ) ;
#47 = ORGANIZATION ( 'UNSPECIFIED', 'UNSPECIFIED', '' ) ;
#48 = CARTESIAN_POINT ( 'NONE',  ( 7.603315963338594400E-016, 6.208578643762692200, -1.569999999999999000 ) ) ;
#49 = ORIENTED_EDGE ( 'NONE', *, *, #41, .F. ) ;
#50 = FACE_OUTER_BOUND ( 'NONE', #211, .T. ) ;
#51 = COORDINATED_UNIVERSAL_TIME_OFFSET ( 5, 0, .BEHIND. ) ;
#52 = DIRECTION ( 'NONE',  ( 0.0000000000000000000, 1.000000000000000000, 3.143334444888610200E-016 ) ) ;
#53 = DIRECTION ( 'NONE',  ( -0.0000000000000000000, 3.061515884555943100E-016, -1.000000000000000000 ) ) ;
#54 = DIRECTION ( 'NONE',  ( 1.000000000000000000, 0.0000000000000000000, 0.0000000000000000000 ) ) ;
#55 = CC_DESIGN_PERSON_AND_ORGANIZATION_ASSIGNMENT ( #72, #127, ( #75 ) ) ;
#56 = PERSON_AND_ORGANIZATION_ROLE ( 'design_owner' ) ;
#57 = CARTESIAN_POINT ( 'NONE',  ( 0.0000000000000000000, -5.223265839968631200E-017, 0.4826104438757866700 ) ) ;
#58 = APPROVAL_DATE_TIME ( #212, #242 ) ;
#59 = ADVANCED_FACE ( 'NONE', ( #7 ), #283, .T. ) ;
#60 = EDGE_CURVE ( 'NONE', #96, #222, #228, .T. ) ;
#61 = LINE ( 'NONE', #37, #123 ) ;
#62 = VERTEX_POINT ( 'NONE', #232 ) ;
#63 = LINE ( 'NONE', #217, #158 ) ;
#64 = PERSON ( 'UNSPECIFIED', 'UNSPECIFIED', 'UNSPECIFIED', ('UNSPECIFIED'), ('UNSPECIFIED'), ('UNSPECIFIED') ) ;
#65 = CARTESIAN_POINT ( 'NONE',  ( 0.0000000000000000000, 5.761772894734283700E-016, -1.570000000000000100 ) ) ;
#66 = CONICAL_SURFACE ( 'NONE', #43, 6.208578643762691300, 0.7853981633974473900 ) ;
#67 = LOCAL_TIME ( 11, 26, 4.000000000000000000, #81 ) ;
#68 = DIRECTION ( 'NONE',  ( 8.659560562354940300E-017, -0.7071067811865479100, -0.7071067811865472400 ) ) ;
#69 = ADVANCED_BREP_SHAPE_REPRESENTATION ( '20102-E0W', ( #299, #26 ), #118 ) ;
#70 = CARTESIAN_POINT ( 'NONE',  ( 0.0000000000000000000, 5.761772894734286600E-016, -1.570000000000001000 ) ) ;
#71 = EDGE_LOOP ( 'NONE', ( #12, #145, #200, #129 ) ) ;
#72 = PERSON_AND_ORGANIZATION ( #64, #47 ) ;
#73 = DIRECTION ( 'NONE',  ( 0.0000000000000000000, -3.061515884555943100E-016, 1.000000000000000000 ) ) ;
#74 = ORIENTED_EDGE ( 'NONE', *, *, #266, .T. ) ;
#75 = PRODUCT_DEFINITION_FORMATION_WITH_SPECIFIED_SOURCE ( 'ANY', '', #215, .NOT_KNOWN. ) ;
#76 = CARTESIAN_POINT ( 'NONE',  ( 0.0000000000000000000, 6.208578643762685100, 0.4826104438757901600 ) ) ;
#77 = ORIENTED_EDGE ( 'NONE', *, *, #130, .T. ) ;
#78 = PERSON_AND_ORGANIZATION_ROLE ( 'creator' ) ;
#79 = DESIGN_CONTEXT ( 'detailed design', #187, 'design' ) ;
#80 = SHAPE_DEFINITION_REPRESENTATION ( #281, #69 ) ;
#81 = COORDINATED_UNIVERSAL_TIME_OFFSET ( 5, 0, .BEHIND. ) ;
#82 = APPLICATION_PROTOCOL_DEFINITION ( 'international standard', 'config_control_design', 1994, #187 ) ;
#83 = EDGE_CURVE ( 'NONE', #45, #285, #218, .T. ) ;
#84 = DIRECTION ( 'NONE',  ( -0.0000000000000000000, 3.061515884555943100E-016, -1.000000000000000000 ) ) ;
#85 = EDGE_CURVE ( 'NONE', #222, #96, #22, .T. ) ;
#86 = DIRECTION ( 'NONE',  ( 0.0000000000000000000, 1.000000000000000000, 3.056019599197260700E-016 ) ) ;
#87 = CIRCLE ( 'NONE', #117, 6.208578643762691300 ) ;
#88 = AXIS2_PLACEMENT_3D ( 'NONE', #177, #263, #95 ) ;
#89 = CC_DESIGN_APPROVAL ( #25, ( #273 ) ) ;
#90 = CARTESIAN_POINT ( 'NONE',  ( 0.0000000000000000000, -8.936285546089461200E-018, 0.3411890876384772200 ) ) ;
#91 = DIRECTION ( 'NONE',  ( -0.0000000000000000000, 3.061515884555943100E-016, -1.000000000000000000 ) ) ;
#92 = ORIENTED_EDGE ( 'NONE', *, *, #126, .F. ) ;
#93 = DIRECTION ( 'NONE',  ( 0.0000000000000000000, -1.000000000000000000, -3.143334444888610200E-016 ) ) ;
#94 = DIRECTION ( 'NONE',  ( 0.0000000000000000000, 0.0000000000000000000, 1.000000000000000000 ) ) ;
#95 = DIRECTION ( 'NONE',  ( 0.0000000000000000000, 1.000000000000000000, 3.073328992872296400E-016 ) ) ;
#96 = VERTEX_POINT ( 'NONE', #44 ) ;
#97 = VECTOR ( 'NONE', #53, 1000.000000000000000 ) ;
#98 = CARTESIAN_POINT ( 'NONE',  ( 0.0000000000000000000, 6.349999999999998800, 0.3411890876384791600 ) ) ;
#99 = PERSON_AND_ORGANIZATION_ROLE ( 'creator' ) ;
#100 = DIRECTION ( 'NONE',  ( 0.0000000000000000000, 1.000000000000000000, 3.056019599197260700E-016 ) ) ;
#101 = CC_DESIGN_PERSON_AND_ORGANIZATION_ASSIGNMENT ( #226, #191, ( #149 ) ) ;
#102 =( NAMED_UNIT ( * ) SI_UNIT ( $, .STERADIAN. ) SOLID_ANGLE_UNIT ( ) );
#103 = CARTESIAN_POINT ( 'NONE',  ( 7.689911568962143300E-016, 6.208578643762692200, -1.569999999999999000 ) ) ;
#104 = DIRECTION ( 'NONE',  ( 8.659560562354925500E-017, 0.7071067811865466800, 0.7071067811865483500 ) ) ;
#105 = ADVANCED_FACE ( 'NONE', ( #29 ), #66, .T. ) ;
#106 = EDGE_CURVE ( 'NONE', #300, #45, #270, .T. ) ;
#107 = CIRCLE ( 'NONE', #179, 6.349999999999998800 ) ;
#108 = APPLICATION_PROTOCOL_DEFINITION ( 'international standard', 'config_control_design', 1994, #136 ) ;
#109 = ORIENTED_EDGE ( 'NONE', *, *, #83, .T. ) ;
#110 = CC_DESIGN_PERSON_AND_ORGANIZATION_ASSIGNMENT ( #34, #78, ( #273 ) ) ;
#111 = DIRECTION ( 'NONE',  ( -1.000000000000000000, 0.0000000000000000000, 0.0000000000000000000 ) ) ;
#112 =( LENGTH_UNIT ( ) NAMED_UNIT ( * ) SI_UNIT ( .MILLI., .METRE. ) );
#113 = EDGE_LOOP ( 'NONE', ( #153, #162, #74, #210 ) ) ;
#114 = AXIS2_PLACEMENT_3D ( 'NONE', #233, #234, #137 ) ;
#115 = DIRECTION ( 'NONE',  ( -0.0000000000000000000, 3.061515884555943100E-016, -1.000000000000000000 ) ) ;
#116 = ORIENTED_EDGE ( 'NONE', *, *, #293, .F. ) ;
#117 = AXIS2_PLACEMENT_3D ( 'NONE', #70, #287, #166 ) ;
#118 =( GEOMETRIC_REPRESENTATION_CONTEXT ( 3 ) GLOBAL_UNCERTAINTY_ASSIGNED_CONTEXT ( ( #205 ) ) GLOBAL_UNIT_ASSIGNED_CONTEXT ( ( #112, #197, #102 ) ) REPRESENTATION_CONTEXT ( 'NONE', 'WORKASPACE' ) );
#119 = DIRECTION ( 'NONE',  ( 0.0000000000000000000, 1.000000000000000000, 3.073328992872296900E-016 ) ) ;
#120 = ORIENTED_EDGE ( 'NONE', *, *, #85, .T. ) ;
#121 = AXIS2_PLACEMENT_3D ( 'NONE', #195, #5, #223 ) ;
#122 = CARTESIAN_POINT ( 'NONE',  ( 0.0000000000000000000, -6.208578643762690400, -1.570000000000002700 ) ) ;
#123 = VECTOR ( 'NONE', #115, 1000.000000000000000 ) ;
#124 = AXIS2_PLACEMENT_3D ( 'NONE', #284, #73, #253 ) ;
#125 = DIRECTION ( 'NONE',  ( -0.0000000000000000000, 3.061515884555943100E-016, -1.000000000000000000 ) ) ;
#126 = EDGE_CURVE ( 'NONE', #169, #96, #206, .T. ) ;
#127 = PERSON_AND_ORGANIZATION_ROLE ( 'design_supplier' ) ;
#128 = CYLINDRICAL_SURFACE ( 'NONE', #280, 6.349999999999999600 ) ;
#129 = ORIENTED_EDGE ( 'NONE', *, *, #249, .F. ) ;
#130 = EDGE_CURVE ( 'NONE', #18, #285, #63, .T. ) ;
#131 = CONICAL_SURFACE ( 'NONE', #124, 6.208578643762691300, 0.7853981633974473900 ) ;
#132 = AXIS2_PLACEMENT_3D ( 'NONE', #161, #240, #171 ) ;
#133 = CARTESIAN_POINT ( 'NONE',  ( 0.0000000000000000000, -8.936285546089461200E-018, 0.3411890876384772200 ) ) ;
#134 = ORIENTED_EDGE ( 'NONE', *, *, #245, .T. ) ;
#135 = AXIS2_PLACEMENT_3D ( 'NONE', #27, #17, #2 ) ;
#136 = APPLICATION_CONTEXT ( 'configuration controlled 3d designs of mechanical parts and assemblies' ) ;
#137 = DIRECTION ( 'NONE',  ( 0.0000000000000000000, 1.000000000000000000, 3.798387291387797500E-016 ) ) ;
#138 = SPHERICAL_SURFACE ( 'NONE', #121, 18.26800000000000100 ) ;
#139 = DIRECTION ( 'NONE',  ( 0.0000000000000000000, 1.000000000000000000, 3.073328992872296400E-016 ) ) ;
#140 = DIRECTION ( 'NONE',  ( 0.0000000000000000000, 0.0000000000000000000, 1.000000000000000000 ) ) ;
#141 = EDGE_LOOP ( 'NONE', ( #214, #134 ) ) ;
#142 = APPROVAL_ROLE ( '' ) ;
#143 = FACE_OUTER_BOUND ( 'NONE', #113, .T. ) ;
#144 = DIRECTION ( 'NONE',  ( 0.0000000000000000000, 1.000000000000000000, 3.073328992872296900E-016 ) ) ;
#145 = ORIENTED_EDGE ( 'NONE', *, *, #60, .T. ) ;
#146 = LOCAL_TIME ( 11, 26, 4.000000000000000000, #216 ) ;
#147 = ORIENTED_EDGE ( 'NONE', *, *, #296, .F. ) ;
#148 = FACE_OUTER_BOUND ( 'NONE', #255, .T. ) ;
#149 = SECURITY_CLASSIFICATION ( '', '', #163 ) ;
#150 = ADVANCED_FACE ( 'NONE', ( #288 ), #155, .T. ) ;
#151 = AXIS2_PLACEMENT_3D ( 'NONE', #133, #164, #144 ) ;
#152 = ADVANCED_FACE ( 'NONE', ( #1 ), #251, .T. ) ;
#153 = ORIENTED_EDGE ( 'NONE', *, *, #245, .F. ) ;
#154 = CARTESIAN_POINT ( 'NONE',  ( 0.0000000000000000000, 1.851972188885581300E-015, -16.69800000000000000 ) ) ;
#155 = CONICAL_SURFACE ( 'NONE', #23, 6.349999999999998800, 0.7853981633974490600 ) ;
#156 = LOCAL_TIME ( 11, 26, 4.000000000000000000, #8 ) ;
#157 = AXIS2_PLACEMENT_3D ( 'NONE', #225, #125, #231 ) ;
#158 = VECTOR ( 'NONE', #221, 1000.000000000000000 ) ;
#159 = ORIENTED_EDGE ( 'NONE', *, *, #106, .F. ) ;
#160 = CC_DESIGN_APPROVAL ( #242, ( #149 ) ) ;
#161 = CARTESIAN_POINT ( 'NONE',  ( 0.0000000000000000000, -8.936285546089461200E-018, 0.3411890876384772200 ) ) ;
#162 = ORIENTED_EDGE ( 'NONE', *, *, #248, .T. ) ;
#163 = SECURITY_CLASSIFICATION_LEVEL ( 'unclassified' ) ;
#164 = DIRECTION ( 'NONE',  ( -0.0000000000000000000, 3.061515884555943100E-016, -1.000000000000000000 ) ) ;
#165 = ORIENTED_EDGE ( 'NONE', *, *, #201, .F. ) ;
#166 = DIRECTION ( 'NONE',  ( 0.0000000000000000000, 1.000000000000000000, 3.143334444888610200E-016 ) ) ;
#167 = AXIS2_PLACEMENT_3D ( 'NONE', #30, #236, #52 ) ;
#168 = LINE ( 'NONE', #48, #209 ) ;
#169 = VERTEX_POINT ( 'NONE', #269 ) ;
#170 = CARTESIAN_POINT ( 'NONE',  ( 0.0000000000000000000, 0.0000000000000000000, 0.0000000000000000000 ) ) ;
#171 = DIRECTION ( 'NONE',  ( 0.0000000000000000000, 1.000000000000000000, 3.073328992872296900E-016 ) ) ;
#172 = CARTESIAN_POINT ( 'NONE',  ( 0.0000000000000000000, -5.223265839968631200E-017, 0.4826104438757866700 ) ) ;
#173 = EDGE_LOOP ( 'NONE', ( #120, #6, #159, #147 ) ) ;
#174 = APPROVAL_STATUS ( 'not_yet_approved' ) ;
#175 = EDGE_CURVE ( 'NONE', #96, #45, #33, .T. ) ;
#176 = CIRCLE ( 'NONE', #289, 18.26800000000000100 ) ;
#177 = CARTESIAN_POINT ( 'NONE',  ( 0.0000000000000000000, 5.328809166198320200E-016, -1.428578643762691700 ) ) ;
#178 = DIRECTION ( 'NONE',  ( 0.0000000000000000000, 1.000000000000000000, 3.061515884555943100E-016 ) ) ;
#179 = AXIS2_PLACEMENT_3D ( 'NONE', #90, #207, #181 ) ;
#180 = CALENDAR_DATE ( 2015, 10, 7 ) ;
#181 = DIRECTION ( 'NONE',  ( 0.0000000000000000000, 1.000000000000000000, 3.073328992872296900E-016 ) ) ;
#182 = PLANE ( 'NONE',  #259 ) ;
#183 = APPROVAL_ROLE ( '' ) ;
#184 = CLOSED_SHELL ( 'NONE', ( #294, #38, #152, #203, #20, #292, #150, #59, #105 ) ) ;
#185 = DIRECTION ( 'NONE',  ( -0.0000000000000000000, 3.061515884555943100E-016, -1.000000000000000000 ) ) ;
#186 = APPROVAL_ROLE ( '' ) ;
#187 = APPLICATION_CONTEXT ( 'configuration controlled 3d designs of mechanical parts and assemblies' ) ;
#188 = EDGE_LOOP ( 'NONE', ( #230, #109, #246, #4 ) ) ;
#189 = DATE_TIME_ROLE ( 'creation_date' ) ;
#190 = ORIENTED_EDGE ( 'NONE', *, *, #85, .F. ) ;
#191 = PERSON_AND_ORGANIZATION_ROLE ( 'classification_officer' ) ;
#192 = ORIENTED_EDGE ( 'NONE', *, *, #41, .T. ) ;
#193 = FACE_OUTER_BOUND ( 'NONE', #141, .T. ) ;
#194 = CC_DESIGN_DATE_AND_TIME_ASSIGNMENT ( #256, #286, ( #149 ) ) ;
#195 = CARTESIAN_POINT ( 'NONE',  ( 0.0000000000000000000, 1.851972188885581300E-015, -16.69800000000000000 ) ) ;
#196 = DIRECTION ( 'NONE',  ( -0.0000000000000000000, 3.061515884555943100E-016, -1.000000000000000000 ) ) ;
#197 =( NAMED_UNIT ( * ) PLANE_ANGLE_UNIT ( ) SI_UNIT ( $, .RADIAN. ) );
#198 = COORDINATED_UNIVERSAL_TIME_OFFSET ( 5, 0, .BEHIND. ) ;
#199 = CARTESIAN_POINT ( 'NONE',  ( 0.0000000000000000000, -8.936285546089461200E-018, 0.3411890876384772200 ) ) ;
#200 = ORIENTED_EDGE ( 'NONE', *, *, #296, .T. ) ;
#201 = EDGE_CURVE ( 'NONE', #285, #62, #298, .T. ) ;
#202 = SPHERICAL_SURFACE ( 'NONE', #114, 18.26800000000000100 ) ;
#203 = ADVANCED_FACE ( 'NONE', ( #50 ), #138, .T. ) ;
#204 = APPROVAL_PERSON_ORGANIZATION ( #11, #25, #186 ) ;
#205 = UNCERTAINTY_MEASURE_WITH_UNIT (LENGTH_MEASURE( 1.000000000000000100E-005 ), #112, 'distance_accuracy_value', 'NONE');
#206 = CIRCLE ( 'NONE', #135, 18.26800000000000100 ) ;
#207 = DIRECTION ( 'NONE',  ( -0.0000000000000000000, 3.061515884555943100E-016, -1.000000000000000000 ) ) ;
#208 = CC_DESIGN_DATE_AND_TIME_ASSIGNMENT ( #237, #189, ( #273 ) ) ;
#209 = VECTOR ( 'NONE', #104, 1000.000000000000000 ) ;
#210 = ORIENTED_EDGE ( 'NONE', *, *, #130, .F. ) ;
#211 = EDGE_LOOP ( 'NONE', ( #49, #239, #190 ) ) ;
#212 = DATE_AND_TIME ( #46, #290 ) ;
#213 = DIRECTION ( 'NONE',  ( 0.0000000000000000000, 0.7071067811865483500, -0.7071067811865468000 ) ) ;
#214 = ORIENTED_EDGE ( 'NONE', *, *, #293, .T. ) ;
#215 = PRODUCT ( '20102-E0W', '20102-E0W', '', ( #40 ) ) ;
#216 = COORDINATED_UNIVERSAL_TIME_OFFSET ( 5, 0, .BEHIND. ) ;
#217 = CARTESIAN_POINT ( 'NONE',  ( 0.0000000000000000000, -6.208578643762690400, -1.570000000000002700 ) ) ;
#218 = LINE ( 'NONE', #264, #97 ) ;
#219 = PERSON_AND_ORGANIZATION ( #64, #47 ) ;
#220 = APPROVAL_DATE_TIME ( #244, #25 ) ;
#221 = DIRECTION ( 'NONE',  ( 0.0000000000000000000, -0.7071067811865471300, 0.7071067811865479100 ) ) ;
#222 = VERTEX_POINT ( 'NONE', #76 ) ;
#223 = DIRECTION ( 'NONE',  ( 0.0000000000000000000, 1.000000000000000000, 3.798387291387797500E-016 ) ) ;
#224 = ORIENTED_EDGE ( 'NONE', *, *, #227, .T. ) ;
#225 = CARTESIAN_POINT ( 'NONE',  ( 0.0000000000000000000, 5.328809166198320200E-016, -1.428578643762691700 ) ) ;
#226 = PERSON_AND_ORGANIZATION ( #64, #47 ) ;
#227 = EDGE_CURVE ( 'NONE', #300, #62, #61, .T. ) ;
#228 = CIRCLE ( 'NONE', #15, 6.208578643762689500 ) ;
#229 = CIRCLE ( 'NONE', #167, 6.208578643762691300 ) ;
#230 = ORIENTED_EDGE ( 'NONE', *, *, #106, .T. ) ;
#231 = DIRECTION ( 'NONE',  ( 0.0000000000000000000, 1.000000000000000000, 3.073328992872296400E-016 ) ) ;
#232 = CARTESIAN_POINT ( 'NONE',  ( 0.0000000000000000000, 6.350000000000000500, -1.428578643762689900 ) ) ;
#233 = CARTESIAN_POINT ( 'NONE',  ( 0.0000000000000000000, 1.851972188885581300E-015, -16.69800000000000000 ) ) ;
#234 = DIRECTION ( 'NONE',  ( 1.000000000000000000, 0.0000000000000000000, -0.0000000000000000000 ) ) ;
#235 = APPROVAL_PERSON_ORGANIZATION ( #19, #242, #142 ) ;
#236 = DIRECTION ( 'NONE',  ( -0.0000000000000000000, 3.061515884555943100E-016, -1.000000000000000000 ) ) ;
#237 = DATE_AND_TIME ( #243, #156 ) ;
#238 = CARTESIAN_POINT ( 'NONE',  ( 0.0000000000000000000, 5.761772894734286600E-016, -1.570000000000001000 ) ) ;
#239 = ORIENTED_EDGE ( 'NONE', *, *, #126, .T. ) ;
#240 = DIRECTION ( 'NONE',  ( -0.0000000000000000000, 3.061515884555943100E-016, -1.000000000000000000 ) ) ;
#241 = LINE ( 'NONE', #98, #31 ) ;
#242 = APPROVAL ( #174, 'UNSPECIFIED' ) ;
#243 = CALENDAR_DATE ( 2015, 10, 7 ) ;
#244 = DATE_AND_TIME ( #180, #67 ) ;
#245 = EDGE_CURVE ( 'NONE', #9, #18, #87, .T. ) ;
#246 = ORIENTED_EDGE ( 'NONE', *, *, #266, .F. ) ;
#247 = APPROVAL_DATE_TIME ( #278, #252 ) ;
#248 = EDGE_CURVE ( 'NONE', #9, #62, #168, .T. ) ;
#249 = EDGE_CURVE ( 'NONE', #45, #300, #107, .T. ) ;
#250 = EDGE_LOOP ( 'NONE', ( #260, #116, #77, #39 ) ) ;
#251 = CONICAL_SURFACE ( 'NONE', #132, 6.349999999999998800, 0.7853981633974490600 ) ;
#252 = APPROVAL ( #268, 'UNSPECIFIED' ) ;
#253 = DIRECTION ( 'NONE',  ( 0.0000000000000000000, -1.000000000000000000, -3.143334444888610200E-016 ) ) ;
#254 = APPROVAL_PERSON_ORGANIZATION ( #219, #252, #183 ) ;
#255 = EDGE_LOOP ( 'NONE', ( #92, #192, #279 ) ) ;
#256 = DATE_AND_TIME ( #275, #146 ) ;
#257 = CALENDAR_DATE ( 2015, 10, 7 ) ;
#258 = CC_DESIGN_SECURITY_CLASSIFICATION ( #149, ( #75 ) ) ;
#259 = AXIS2_PLACEMENT_3D ( 'NONE', #271, #277, #178 ) ;
#260 = ORIENTED_EDGE ( 'NONE', *, *, #248, .F. ) ;
#261 = APPROVAL_STATUS ( 'not_yet_approved' ) ;
#262 = CC_DESIGN_APPROVAL ( #252, ( #75 ) ) ;
#263 = DIRECTION ( 'NONE',  ( -0.0000000000000000000, 3.061515884555943100E-016, -1.000000000000000000 ) ) ;
#264 = CARTESIAN_POINT ( 'NONE',  ( 7.776507174585692200E-016, -6.349999999999998800, -1.570000000000002100 ) ) ;
#265 = CC_DESIGN_PERSON_AND_ORGANIZATION_ASSIGNMENT ( #295, #56, ( #215 ) ) ;
#266 = EDGE_CURVE ( 'NONE', #62, #285, #42, .T. ) ;
#267 = EDGE_LOOP ( 'NONE', ( #282, #291, #224, #165 ) ) ;
#268 = APPROVAL_STATUS ( 'not_yet_approved' ) ;
#269 = CARTESIAN_POINT ( 'NONE',  ( 0.0000000000000000000, -2.622212642680023200E-015, 1.569999999999998500 ) ) ;
#270 = CIRCLE ( 'NONE', #151, 6.349999999999998800 ) ;
#271 = CARTESIAN_POINT ( 'NONE',  ( 0.0000000000000000000, 5.761772894734284600E-016, -1.570000000000000300 ) ) ;
#272 = FACE_OUTER_BOUND ( 'NONE', #188, .T. ) ;
#273 = PRODUCT_DEFINITION ( 'UNKNOWN', '', #75, #79 ) ;
#274 = DIRECTION ( 'NONE',  ( 0.0000000000000000000, -3.061515884555943100E-016, 1.000000000000000000 ) ) ;
#275 = CALENDAR_DATE ( 2015, 10, 7 ) ;
#276 = CARTESIAN_POINT ( 'NONE',  ( 7.776507174585691200E-016, -6.349999999999998800, 0.3411890876384752200 ) ) ;
#277 = DIRECTION ( 'NONE',  ( -0.0000000000000000000, 3.061515884555943100E-016, -1.000000000000000000 ) ) ;
#278 = DATE_AND_TIME ( #257, #301 ) ;
#279 = ORIENTED_EDGE ( 'NONE', *, *, #60, .F. ) ;
#280 = AXIS2_PLACEMENT_3D ( 'NONE', #65, #196, #21 ) ;
#281 = PRODUCT_DEFINITION_SHAPE ( 'NONE', 'NONE',  #273 ) ;
#282 = ORIENTED_EDGE ( 'NONE', *, *, #83, .F. ) ;
#283 = CYLINDRICAL_SURFACE ( 'NONE', #297, 6.349999999999999600 ) ;
#284 = CARTESIAN_POINT ( 'NONE',  ( 0.0000000000000000000, 5.761772894734286600E-016, -1.570000000000001000 ) ) ;
#285 = VERTEX_POINT ( 'NONE', #28 ) ;
#286 = DATE_TIME_ROLE ( 'classification_date' ) ;
#287 = DIRECTION ( 'NONE',  ( -0.0000000000000000000, 3.061515884555943100E-016, -1.000000000000000000 ) ) ;
#288 = FACE_OUTER_BOUND ( 'NONE', #71, .T. ) ;
#289 = AXIS2_PLACEMENT_3D ( 'NONE', #154, #111, #94 ) ;
#290 = LOCAL_TIME ( 11, 26, 4.000000000000000000, #198 ) ;
#291 = ORIENTED_EDGE ( 'NONE', *, *, #249, .T. ) ;
#292 = ADVANCED_FACE ( 'NONE', ( #148 ), #202, .T. ) ;
#293 = EDGE_CURVE ( 'NONE', #18, #9, #229, .T. ) ;
#294 = ADVANCED_FACE ( 'NONE', ( #143 ), #131, .T. ) ;
#295 = PERSON_AND_ORGANIZATION ( #64, #47 ) ;
#296 = EDGE_CURVE ( 'NONE', #222, #300, #241, .T. ) ;
#297 = AXIS2_PLACEMENT_3D ( 'NONE', #35, #185, #139 ) ;
#298 = CIRCLE ( 'NONE', #88, 6.349999999999999600 ) ;
#299 = MANIFOLD_SOLID_BREP ( '20102-001-1-solid1', #184 ) ;
#300 = VERTEX_POINT ( 'NONE', #24 ) ;
#301 = LOCAL_TIME ( 11, 26, 4.000000000000000000, #51 ) ;
ENDSEC;
END-ISO-10303-21;
