ISO-10303-21;
HEADER;
FILE_DESCRIPTION (( 'STEP AP203' ),
    '1' );
FILE_NAME ('Web Model 39292_39292.step',
    '2019-06-10T20:04:45',
    ( '' ),
    ( '' ),
    'SwSTEP 2.0',
    'SolidWorks 2018',
    '' );
FILE_SCHEMA (( 'CONFIG_CONTROL_DESIGN' ));
ENDSEC;

DATA;
#1 = DIRECTION ( 'NONE',  ( 1.000000000000000000, 0.0000000000000000000, 0.0000000000000000000 ) ) ;
#2 = APPROVAL_ROLE ( '' ) ;
#3 = PERSON_AND_ORGANIZATION ( #34, #60 ) ;
#4 = CC_DESIGN_APPROVAL ( #148, ( #68 ) ) ;
#5 = PERSON_AND_ORGANIZATION ( #34, #60 ) ;
#6 = FACE_OUTER_BOUND ( 'NONE', #141, .T. ) ;
#7 = CC_DESIGN_SECURITY_CLASSIFICATION ( #62, ( #113 ) ) ;
#8 = PLANE ( 'NONE',  #38 ) ;
#9 = DIRECTION ( 'NONE',  ( 0.0000000000000000000, 0.0000000000000000000, 1.000000000000000000 ) ) ;
#10 = VERTEX_POINT ( 'NONE', #79 ) ;
#11 = CARTESIAN_POINT ( 'NONE',  ( -50.00000000000000000, 0.0000000000000000000, 4.000000000000000000 ) ) ;
#12 = DIRECTION ( 'NONE',  ( 0.0000000000000000000, 0.0000000000000000000, 1.000000000000000000 ) ) ;
#13 = APPROVAL_DATE_TIME ( #133, #148 ) ;
#14 = APPLICATION_CONTEXT ( 'configuration controlled 3d designs of mechanical parts and assemblies' ) ;
#15 = ORIENTED_EDGE ( 'NONE', *, *, #139, .F. ) ;
#16 = PERSON_AND_ORGANIZATION_ROLE ( 'creator' ) ;
#17 =( LENGTH_UNIT ( ) NAMED_UNIT ( * ) SI_UNIT ( .MILLI., .METRE. ) );
#18 = CC_DESIGN_PERSON_AND_ORGANIZATION_ASSIGNMENT ( #69, #156, ( #68 ) ) ;
#19 = PRODUCT ( 'Web Model 39292_39292', 'Web Model 39292_39292', '', ( #82 ) ) ;
#20 = CARTESIAN_POINT ( 'NONE',  ( 0.0000000000000000000, 0.0000000000000000000, 0.0000000000000000000 ) ) ;
#21 = ORIENTED_EDGE ( 'NONE', *, *, #95, .T. ) ;
#22 = AXIS2_PLACEMENT_3D ( 'NONE', #78, #9, #28 ) ;
#23 = PERSON_AND_ORGANIZATION ( #34, #60 ) ;
#24 =( GEOMETRIC_REPRESENTATION_CONTEXT ( 3 ) GLOBAL_UNCERTAINTY_ASSIGNED_CONTEXT ( ( #76 ) ) GLOBAL_UNIT_ASSIGNED_CONTEXT ( ( #17, #105, #114 ) ) REPRESENTATION_CONTEXT ( 'NONE', 'WORKASPACE' ) );
#25 = SHAPE_DEFINITION_REPRESENTATION ( #132, #130 ) ;
#26 = ADVANCED_FACE ( 'NONE', ( #6 ), #111, .T. ) ;
#27 = DIRECTION ( 'NONE',  ( 0.0000000000000000000, 0.0000000000000000000, 1.000000000000000000 ) ) ;
#28 = DIRECTION ( 'NONE',  ( 1.000000000000000000, 0.0000000000000000000, 0.0000000000000000000 ) ) ;
#29 = PRODUCT_RELATED_PRODUCT_CATEGORY ( 'detail', '', ( #19 ) ) ;
#30 = CARTESIAN_POINT ( 'NONE',  ( 0.0000000000000000000, 0.0000000000000000000, -4.000000000000000000 ) ) ;
#31 = DATE_AND_TIME ( #75, #52 ) ;
#32 = EDGE_LOOP ( 'NONE', ( #15, #172 ) ) ;
#33 = PERSON_AND_ORGANIZATION_ROLE ( 'design_supplier' ) ;
#34 = PERSON ( 'UNSPECIFIED', 'UNSPECIFIED', 'UNSPECIFIED', ('UNSPECIFIED'), ('UNSPECIFIED'), ('UNSPECIFIED') ) ;
#35 = APPROVAL_DATE_TIME ( #152, #135 ) ;
#36 = VERTEX_POINT ( 'NONE', #169 ) ;
#37 = APPROVAL ( #44, 'UNSPECIFIED' ) ;
#38 = AXIS2_PLACEMENT_3D ( 'NONE', #30, #12, #155 ) ;
#39 = VERTEX_POINT ( 'NONE', #40 ) ;
#40 = CARTESIAN_POINT ( 'NONE',  ( -50.00000000000000000, 0.0000000000000000000, 4.000000000000000000 ) ) ;
#41 = VECTOR ( 'NONE', #100, 1000.000000000000000 ) ;
#42 = DIRECTION ( 'NONE',  ( 1.000000000000000000, 0.0000000000000000000, -0.0000000000000000000 ) ) ;
#43 = APPLICATION_PROTOCOL_DEFINITION ( 'international standard', 'config_control_design', 1994, #14 ) ;
#44 = APPROVAL_STATUS ( 'not_yet_approved' ) ;
#45 = DATE_TIME_ROLE ( 'classification_date' ) ;
#46 = EDGE_CURVE ( 'NONE', #39, #10, #136, .T. ) ;
#47 = PERSON_AND_ORGANIZATION ( #34, #60 ) ;
#48 = ORIENTED_EDGE ( 'NONE', *, *, #49, .F. ) ;
#49 = EDGE_CURVE ( 'NONE', #39, #108, #159, .T. ) ;
#50 = FACE_OUTER_BOUND ( 'NONE', #32, .T. ) ;
#51 = CARTESIAN_POINT ( 'NONE',  ( 0.0000000000000000000, 0.0000000000000000000, -4.000000000000000000 ) ) ;
#52 = LOCAL_TIME ( 16, 4, 45.00000000000000000, #85 ) ;
#53 = DIRECTION ( 'NONE',  ( -0.0000000000000000000, -0.0000000000000000000, -1.000000000000000000 ) ) ;
#54 = CARTESIAN_POINT ( 'NONE',  ( 0.0000000000000000000, 0.0000000000000000000, 4.000000000000000000 ) ) ;
#55 = DIRECTION ( 'NONE',  ( -1.000000000000000000, 0.0000000000000000000, 0.0000000000000000000 ) ) ;
#56 = DATE_TIME_ROLE ( 'creation_date' ) ;
#57 = APPROVAL_STATUS ( 'not_yet_approved' ) ;
#58 = LOCAL_TIME ( 16, 4, 45.00000000000000000, #126 ) ;
#59 = CC_DESIGN_PERSON_AND_ORGANIZATION_ASSIGNMENT ( #3, #90, ( #19 ) ) ;
#60 = ORGANIZATION ( 'UNSPECIFIED', 'UNSPECIFIED', '' ) ;
#61 = VECTOR ( 'NONE', #171, 1000.000000000000000 ) ;
#62 = SECURITY_CLASSIFICATION ( '', '', #80 ) ;
#63 = APPROVAL_PERSON_ORGANIZATION ( #118, #37, #174 ) ;
#64 = EDGE_LOOP ( 'NONE', ( #161, #131, #166, #137 ) ) ;
#65 = ADVANCED_FACE ( 'NONE', ( #50 ), #8, .F. ) ;
#66 = CALENDAR_DATE ( 2019, 10, 6 ) ;
#67 = DIRECTION ( 'NONE',  ( -0.0000000000000000000, -0.0000000000000000000, -1.000000000000000000 ) ) ;
#68 = PRODUCT_DEFINITION ( 'UNKNOWN', '', #113, #94 ) ;
#69 = PERSON_AND_ORGANIZATION ( #34, #60 ) ;
#70 = APPLICATION_CONTEXT ( 'configuration controlled 3d designs of mechanical parts and assemblies' ) ;
#71 = ORIENTED_EDGE ( 'NONE', *, *, #175, .T. ) ;
#72 = CC_DESIGN_APPROVAL ( #37, ( #62 ) ) ;
#73 = CIRCLE ( 'NONE', #154, 50.00000000000000000 ) ;
#74 = EDGE_LOOP ( 'NONE', ( #120, #71 ) ) ;
#75 = CALENDAR_DATE ( 2019, 10, 6 ) ;
#76 = UNCERTAINTY_MEASURE_WITH_UNIT (LENGTH_MEASURE( 1.000000000000000082E-05 ), #17, 'distance_accuracy_value', 'NONE');
#77 = LINE ( 'NONE', #128, #61 ) ;
#78 = CARTESIAN_POINT ( 'NONE',  ( 0.0000000000000000000, 0.0000000000000000000, 4.000000000000000000 ) ) ;
#79 = CARTESIAN_POINT ( 'NONE',  ( 50.00000000000000000, 6.123233995736766085E-15, 4.000000000000000000 ) ) ;
#80 = SECURITY_CLASSIFICATION_LEVEL ( 'unclassified' ) ;
#81 = AXIS2_PLACEMENT_3D ( 'NONE', #54, #67, #55 ) ;
#82 = MECHANICAL_CONTEXT ( 'NONE', #70, 'mechanical' ) ;
#83 = CIRCLE ( 'NONE', #164, 50.00000000000000000 ) ;
#84 = EDGE_CURVE ( 'NONE', #10, #36, #77, .T. ) ;
#85 = COORDINATED_UNIVERSAL_TIME_OFFSET ( 5, 0, .BEHIND. ) ;
#86 = APPROVAL_PERSON_ORGANIZATION ( #47, #148, #2 ) ;
#87 = CC_DESIGN_APPROVAL ( #135, ( #113 ) ) ;
#88 = CALENDAR_DATE ( 2019, 10, 6 ) ;
#89 = DIRECTION ( 'NONE',  ( 0.0000000000000000000, 0.0000000000000000000, 1.000000000000000000 ) ) ;
#90 = PERSON_AND_ORGANIZATION_ROLE ( 'design_owner' ) ;
#91 = DIRECTION ( 'NONE',  ( 0.0000000000000000000, 0.0000000000000000000, 1.000000000000000000 ) ) ;
#92 = MANIFOLD_SOLID_BREP ( 'Boss-Extrude1', #103 ) ;
#93 = LOCAL_TIME ( 16, 4, 45.00000000000000000, #140 ) ;
#94 = DESIGN_CONTEXT ( 'detailed design', #14, 'design' ) ;
#95 = EDGE_CURVE ( 'NONE', #36, #108, #109, .T. ) ;
#96 = APPROVAL_PERSON_ORGANIZATION ( #23, #135, #117 ) ;
#97 = FACE_OUTER_BOUND ( 'NONE', #64, .T. ) ;
#98 = AXIS2_PLACEMENT_3D ( 'NONE', #20, #89, #160 ) ;
#99 = CARTESIAN_POINT ( 'NONE',  ( -50.00000000000000000, 0.0000000000000000000, -4.000000000000000000 ) ) ;
#100 = DIRECTION ( 'NONE',  ( -0.0000000000000000000, -0.0000000000000000000, -1.000000000000000000 ) ) ;
#101 = CARTESIAN_POINT ( 'NONE',  ( 0.0000000000000000000, 0.0000000000000000000, 4.000000000000000000 ) ) ;
#102 = FACE_OUTER_BOUND ( 'NONE', #74, .T. ) ;
#103 = CLOSED_SHELL ( 'NONE', ( #26, #162, #122, #65 ) ) ;
#104 = APPROVAL_STATUS ( 'not_yet_approved' ) ;
#105 =( NAMED_UNIT ( * ) PLANE_ANGLE_UNIT ( ) SI_UNIT ( $, .RADIAN. ) );
#106 = DATE_AND_TIME ( #163, #93 ) ;
#107 = CC_DESIGN_DATE_AND_TIME_ASSIGNMENT ( #149, #56, ( #68 ) ) ;
#108 = VERTEX_POINT ( 'NONE', #99 ) ;
#109 = CIRCLE ( 'NONE', #116, 50.00000000000000000 ) ;
#110 = COORDINATED_UNIVERSAL_TIME_OFFSET ( 5, 0, .BEHIND. ) ;
#111 = CYLINDRICAL_SURFACE ( 'NONE', #134, 50.00000000000000000 ) ;
#112 = PLANE ( 'NONE',  #124 ) ;
#113 = PRODUCT_DEFINITION_FORMATION_WITH_SPECIFIED_SOURCE ( 'ANY', '', #19, .NOT_KNOWN. ) ;
#114 =( NAMED_UNIT ( * ) SI_UNIT ( $, .STERADIAN. ) SOLID_ANGLE_UNIT ( ) );
#115 = DIRECTION ( 'NONE',  ( 1.000000000000000000, 0.0000000000000000000, 0.0000000000000000000 ) ) ;
#116 = AXIS2_PLACEMENT_3D ( 'NONE', #51, #153, #173 ) ;
#117 = APPROVAL_ROLE ( '' ) ;
#118 = PERSON_AND_ORGANIZATION ( #34, #60 ) ;
#119 = PERSON_AND_ORGANIZATION ( #34, #60 ) ;
#120 = ORIENTED_EDGE ( 'NONE', *, *, #46, .T. ) ;
#121 = CALENDAR_DATE ( 2019, 10, 6 ) ;
#122 = ADVANCED_FACE ( 'NONE', ( #102 ), #112, .T. ) ;
#123 = APPROVAL_DATE_TIME ( #31, #37 ) ;
#124 = AXIS2_PLACEMENT_3D ( 'NONE', #138, #27, #42 ) ;
#125 = DIRECTION ( 'NONE',  ( -1.000000000000000000, 0.0000000000000000000, 0.0000000000000000000 ) ) ;
#126 = COORDINATED_UNIVERSAL_TIME_OFFSET ( 5, 0, .BEHIND. ) ;
#127 = LOCAL_TIME ( 16, 4, 45.00000000000000000, #165 ) ;
#128 = CARTESIAN_POINT ( 'NONE',  ( 50.00000000000000000, 6.123233995736766085E-15, 4.000000000000000000 ) ) ;
#129 = DIRECTION ( 'NONE',  ( 0.0000000000000000000, 0.0000000000000000000, 1.000000000000000000 ) ) ;
#130 = ADVANCED_BREP_SHAPE_REPRESENTATION ( 'Web Model 39292_39292', ( #92, #98 ), #24 ) ;
#131 = ORIENTED_EDGE ( 'NONE', *, *, #46, .F. ) ;
#132 = PRODUCT_DEFINITION_SHAPE ( 'NONE', 'NONE',  #68 ) ;
#133 = DATE_AND_TIME ( #88, #150 ) ;
#134 = AXIS2_PLACEMENT_3D ( 'NONE', #101, #53, #125 ) ;
#135 = APPROVAL ( #104, 'UNSPECIFIED' ) ;
#136 = CIRCLE ( 'NONE', #22, 50.00000000000000000 ) ;
#137 = ORIENTED_EDGE ( 'NONE', *, *, #139, .T. ) ;
#138 = CARTESIAN_POINT ( 'NONE',  ( 0.0000000000000000000, 0.0000000000000000000, 4.000000000000000000 ) ) ;
#139 = EDGE_CURVE ( 'NONE', #108, #36, #73, .T. ) ;
#140 = COORDINATED_UNIVERSAL_TIME_OFFSET ( 5, 0, .BEHIND. ) ;
#141 = EDGE_LOOP ( 'NONE', ( #167, #145, #21, #48 ) ) ;
#142 = CARTESIAN_POINT ( 'NONE',  ( 0.0000000000000000000, 0.0000000000000000000, -4.000000000000000000 ) ) ;
#143 = CARTESIAN_POINT ( 'NONE',  ( 0.0000000000000000000, 0.0000000000000000000, 4.000000000000000000 ) ) ;
#144 = CC_DESIGN_PERSON_AND_ORGANIZATION_ASSIGNMENT ( #5, #16, ( #113 ) ) ;
#145 = ORIENTED_EDGE ( 'NONE', *, *, #84, .T. ) ;
#146 = PERSON_AND_ORGANIZATION_ROLE ( 'classification_officer' ) ;
#147 = PERSON_AND_ORGANIZATION ( #34, #60 ) ;
#148 = APPROVAL ( #57, 'UNSPECIFIED' ) ;
#149 = DATE_AND_TIME ( #121, #127 ) ;
#150 = LOCAL_TIME ( 16, 4, 45.00000000000000000, #110 ) ;
#151 = CC_DESIGN_PERSON_AND_ORGANIZATION_ASSIGNMENT ( #119, #33, ( #113 ) ) ;
#152 = DATE_AND_TIME ( #66, #58 ) ;
#153 = DIRECTION ( 'NONE',  ( 0.0000000000000000000, 0.0000000000000000000, 1.000000000000000000 ) ) ;
#154 = AXIS2_PLACEMENT_3D ( 'NONE', #142, #129, #115 ) ;
#155 = DIRECTION ( 'NONE',  ( 1.000000000000000000, 0.0000000000000000000, -0.0000000000000000000 ) ) ;
#156 = PERSON_AND_ORGANIZATION_ROLE ( 'creator' ) ;
#157 = APPLICATION_PROTOCOL_DEFINITION ( 'international standard', 'config_control_design', 1994, #70 ) ;
#158 = CC_DESIGN_PERSON_AND_ORGANIZATION_ASSIGNMENT ( #147, #146, ( #62 ) ) ;
#159 = LINE ( 'NONE', #11, #41 ) ;
#160 = DIRECTION ( 'NONE',  ( 1.000000000000000000, 0.0000000000000000000, 0.0000000000000000000 ) ) ;
#161 = ORIENTED_EDGE ( 'NONE', *, *, #84, .F. ) ;
#162 = ADVANCED_FACE ( 'NONE', ( #97 ), #170, .T. ) ;
#163 = CALENDAR_DATE ( 2019, 10, 6 ) ;
#164 = AXIS2_PLACEMENT_3D ( 'NONE', #143, #91, #1 ) ;
#165 = COORDINATED_UNIVERSAL_TIME_OFFSET ( 5, 0, .BEHIND. ) ;
#166 = ORIENTED_EDGE ( 'NONE', *, *, #49, .T. ) ;
#167 = ORIENTED_EDGE ( 'NONE', *, *, #175, .F. ) ;
#168 = CC_DESIGN_DATE_AND_TIME_ASSIGNMENT ( #106, #45, ( #62 ) ) ;
#169 = CARTESIAN_POINT ( 'NONE',  ( 50.00000000000000000, 6.123233995736766085E-15, -4.000000000000000000 ) ) ;
#170 = CYLINDRICAL_SURFACE ( 'NONE', #81, 50.00000000000000000 ) ;
#171 = DIRECTION ( 'NONE',  ( -0.0000000000000000000, -0.0000000000000000000, -1.000000000000000000 ) ) ;
#172 = ORIENTED_EDGE ( 'NONE', *, *, #95, .F. ) ;
#173 = DIRECTION ( 'NONE',  ( 1.000000000000000000, 0.0000000000000000000, 0.0000000000000000000 ) ) ;
#174 = APPROVAL_ROLE ( '' ) ;
#175 = EDGE_CURVE ( 'NONE', #10, #39, #83, .T. ) ;
ENDSEC;
END-ISO-10303-21;
