ISO-10303-21;
HEADER;
FILE_DESCRIPTION (( 'STEP AP203' ),
    '1' );
FILE_NAME ('Web Model 39282_39282.step',
    '2018-10-09T13:24:33',
    ( '' ),
    ( '' ),
    'SwSTEP 2.0',
    'SolidWorks 2016',
    '' );
FILE_SCHEMA (( 'CONFIG_CONTROL_DESIGN' ));
ENDSEC;

DATA;
#1 = LOCAL_TIME ( 9, 24, 33.00000000000000000, #17 ) ;
#2 = CIRCLE ( 'NONE', #109, 44.45000000000001000 ) ;
#3 = EDGE_LOOP ( 'NONE', ( #75, #32, #61, #89 ) ) ;
#4 = CC_DESIGN_APPROVAL ( #168, ( #29 ) ) ;
#5 = DIRECTION ( 'NONE',  ( 0.0000000000000000000, 0.0000000000000000000, 1.000000000000000000 ) ) ;
#6 = AXIS2_PLACEMENT_3D ( 'NONE', #101, #68, #125 ) ;
#7 = APPROVAL_PERSON_ORGANIZATION ( #93, #62, #72 ) ;
#8 = PERSON ( 'UNSPECIFIED', 'UNSPECIFIED', 'UNSPECIFIED', ('UNSPECIFIED'), ('UNSPECIFIED'), ('UNSPECIFIED') ) ;
#9 = DIRECTION ( 'NONE',  ( 0.0000000000000000000, 0.0000000000000000000, 1.000000000000000000 ) ) ;
#10 = APPLICATION_PROTOCOL_DEFINITION ( 'international standard', 'config_control_design', 1994, #26 ) ;
#11 = COORDINATED_UNIVERSAL_TIME_OFFSET ( 5, 0, .BEHIND. ) ;
#12 = SECURITY_CLASSIFICATION ( '', '', #13 ) ;
#13 = SECURITY_CLASSIFICATION_LEVEL ( 'unclassified' ) ;
#14 = CC_DESIGN_DATE_AND_TIME_ASSIGNMENT ( #164, #25, ( #29 ) ) ;
#15 = COORDINATED_UNIVERSAL_TIME_OFFSET ( 5, 0, .BEHIND. ) ;
#16 = VERTEX_POINT ( 'NONE', #100 ) ;
#17 = COORDINATED_UNIVERSAL_TIME_OFFSET ( 5, 0, .BEHIND. ) ;
#18 = EDGE_LOOP ( 'NONE', ( #37, #112, #73, #122 ) ) ;
#19 = AXIS2_PLACEMENT_3D ( 'NONE', #22, #20, #35 ) ;
#20 = DIRECTION ( 'NONE',  ( 0.0000000000000000000, 0.0000000000000000000, 1.000000000000000000 ) ) ;
#21 = DIRECTION ( 'NONE',  ( 0.0000000000000000000, 0.0000000000000000000, 1.000000000000000000 ) ) ;
#22 = CARTESIAN_POINT ( 'NONE',  ( 0.0000000000000000000, 0.0000000000000000000, -0.5000000000000000000 ) ) ;
#23 = CC_DESIGN_APPROVAL ( #118, ( #54 ) ) ;
#24 = LOCAL_TIME ( 9, 24, 33.00000000000000000, #44 ) ;
#25 = DATE_TIME_ROLE ( 'creation_date' ) ;
#26 = APPLICATION_CONTEXT ( 'configuration controlled 3d designs of mechanical parts and assemblies' ) ;
#27 = PERSON_AND_ORGANIZATION ( #8, #145 ) ;
#28 = CALENDAR_DATE ( 2018, 9, 10 ) ;
#29 = PRODUCT_DEFINITION ( 'UNKNOWN', '', #54, #76 ) ;
#30 = APPROVAL_DATE_TIME ( #147, #118 ) ;
#31 = EDGE_CURVE ( 'NONE', #169, #133, #104, .T. ) ;
#32 = ORIENTED_EDGE ( 'NONE', *, *, #144, .T. ) ;
#33 = CARTESIAN_POINT ( 'NONE',  ( 0.0000000000000000000, 0.0000000000000000000, 0.0000000000000000000 ) ) ;
#34 = DIRECTION ( 'NONE',  ( -0.0000000000000000000, -0.0000000000000000000, -1.000000000000000000 ) ) ;
#35 = DIRECTION ( 'NONE',  ( 1.000000000000000000, 0.0000000000000000000, 0.0000000000000000000 ) ) ;
#36 = PERSON_AND_ORGANIZATION ( #8, #145 ) ;
#37 = ORIENTED_EDGE ( 'NONE', *, *, #144, .F. ) ;
#38 = PLANE ( 'NONE',  #90 ) ;
#39 = DIRECTION ( 'NONE',  ( 0.0000000000000000000, 0.0000000000000000000, 1.000000000000000000 ) ) ;
#40 = CARTESIAN_POINT ( 'NONE',  ( 0.0000000000000000000, 0.0000000000000000000, 0.5000000000000000000 ) ) ;
#41 = EDGE_LOOP ( 'NONE', ( #88, #107 ) ) ;
#42 = PERSON_AND_ORGANIZATION_ROLE ( 'creator' ) ;
#43 = CC_DESIGN_PERSON_AND_ORGANIZATION_ASSIGNMENT ( #167, #124, ( #29 ) ) ;
#44 = COORDINATED_UNIVERSAL_TIME_OFFSET ( 5, 0, .BEHIND. ) ;
#45 = APPROVAL_DATE_TIME ( #82, #62 ) ;
#46 = CC_DESIGN_PERSON_AND_ORGANIZATION_ASSIGNMENT ( #27, #172, ( #111 ) ) ;
#47 = UNCERTAINTY_MEASURE_WITH_UNIT (LENGTH_MEASURE( 1.000000000000000100E-005 ), #135, 'distance_accuracy_value', 'NONE');
#48 = CALENDAR_DATE ( 2018, 9, 10 ) ;
#49 = CC_DESIGN_DATE_AND_TIME_ASSIGNMENT ( #108, #152, ( #12 ) ) ;
#50 = ADVANCED_FACE ( 'NONE', ( #134 ), #52, .T. ) ;
#51 = PERSON_AND_ORGANIZATION ( #8, #145 ) ;
#52 = CYLINDRICAL_SURFACE ( 'NONE', #131, 44.45000000000001000 ) ;
#53 = PLANE ( 'NONE',  #148 ) ;
#54 = PRODUCT_DEFINITION_FORMATION_WITH_SPECIFIED_SOURCE ( 'ANY', '', #111, .NOT_KNOWN. ) ;
#55 = DIRECTION ( 'NONE',  ( -1.000000000000000000, 0.0000000000000000000, 0.0000000000000000000 ) ) ;
#56 = DIRECTION ( 'NONE',  ( 0.0000000000000000000, 0.0000000000000000000, 1.000000000000000000 ) ) ;
#57 = APPLICATION_PROTOCOL_DEFINITION ( 'international standard', 'config_control_design', 1994, #170 ) ;
#58 = APPROVAL_STATUS ( 'not_yet_approved' ) ;
#59 = DIRECTION ( 'NONE',  ( -1.000000000000000000, 0.0000000000000000000, 0.0000000000000000000 ) ) ;
#60 = APPROVAL_DATE_TIME ( #81, #168 ) ;
#61 = ORIENTED_EDGE ( 'NONE', *, *, #163, .T. ) ;
#62 = APPROVAL ( #70, 'UNSPECIFIED' ) ;
#63 = EDGE_CURVE ( 'NONE', #133, #117, #156, .T. ) ;
#64 = ADVANCED_FACE ( 'NONE', ( #121 ), #53, .F. ) ;
#65 = CARTESIAN_POINT ( 'NONE',  ( 0.0000000000000000000, 0.0000000000000000000, 0.5000000000000000000 ) ) ;
#66 = APPROVAL_PERSON_ORGANIZATION ( #106, #118, #151 ) ;
#67 = CARTESIAN_POINT ( 'NONE',  ( 0.0000000000000000000, 0.0000000000000000000, 0.5000000000000000000 ) ) ;
#68 = DIRECTION ( 'NONE',  ( 0.0000000000000000000, 0.0000000000000000000, 1.000000000000000000 ) ) ;
#69 = EDGE_CURVE ( 'NONE', #133, #169, #2, .T. ) ;
#70 = APPROVAL_STATUS ( 'not_yet_approved' ) ;
#71 = AXIS2_PLACEMENT_3D ( 'NONE', #33, #56, #99 ) ;
#72 = APPROVAL_ROLE ( '' ) ;
#73 = ORIENTED_EDGE ( 'NONE', *, *, #63, .T. ) ;
#74 = CALENDAR_DATE ( 2018, 9, 10 ) ;
#75 = ORIENTED_EDGE ( 'NONE', *, *, #31, .F. ) ;
#76 = DESIGN_CONTEXT ( 'detailed design', #170, 'design' ) ;
#77 = CC_DESIGN_APPROVAL ( #62, ( #12 ) ) ;
#78 = CC_DESIGN_SECURITY_CLASSIFICATION ( #12, ( #54 ) ) ;
#79 = ADVANCED_BREP_SHAPE_REPRESENTATION ( 'Web Model 39282_39282', ( #130, #71 ), #175 ) ;
#80 = DIRECTION ( 'NONE',  ( 1.000000000000000000, 0.0000000000000000000, 0.0000000000000000000 ) ) ;
#81 = DATE_AND_TIME ( #114, #165 ) ;
#82 = DATE_AND_TIME ( #28, #126 ) ;
#83 = CARTESIAN_POINT ( 'NONE',  ( -44.45000000000001000, 0.0000000000000000000, -0.5000000000000000000 ) ) ;
#84 =( NAMED_UNIT ( * ) SI_UNIT ( $, .STERADIAN. ) SOLID_ANGLE_UNIT ( ) );
#85 = CARTESIAN_POINT ( 'NONE',  ( -44.45000000000001000, 0.0000000000000000000, 0.5000000000000000000 ) ) ;
#86 = FACE_OUTER_BOUND ( 'NONE', #3, .T. ) ;
#87 = CLOSED_SHELL ( 'NONE', ( #158, #50, #120, #64 ) ) ;
#88 = ORIENTED_EDGE ( 'NONE', *, *, #105, .F. ) ;
#89 = ORIENTED_EDGE ( 'NONE', *, *, #63, .F. ) ;
#90 = AXIS2_PLACEMENT_3D ( 'NONE', #110, #21, #96 ) ;
#91 = ORIENTED_EDGE ( 'NONE', *, *, #69, .T. ) ;
#92 = CC_DESIGN_PERSON_AND_ORGANIZATION_ASSIGNMENT ( #36, #153, ( #54 ) ) ;
#93 = PERSON_AND_ORGANIZATION ( #8, #145 ) ;
#94 = CARTESIAN_POINT ( 'NONE',  ( 0.0000000000000000000, 0.0000000000000000000, -0.5000000000000000000 ) ) ;
#95 = PRODUCT_DEFINITION_SHAPE ( 'NONE', 'NONE',  #29 ) ;
#96 = DIRECTION ( 'NONE',  ( 1.000000000000000000, 0.0000000000000000000, -0.0000000000000000000 ) ) ;
#97 = DIRECTION ( 'NONE',  ( 1.000000000000000000, 0.0000000000000000000, -0.0000000000000000000 ) ) ;
#98 = APPROVAL_STATUS ( 'not_yet_approved' ) ;
#99 = DIRECTION ( 'NONE',  ( 1.000000000000000000, 0.0000000000000000000, 0.0000000000000000000 ) ) ;
#100 = CARTESIAN_POINT ( 'NONE',  ( 44.45000000000001000, 5.443555022209986500E-015, -0.5000000000000000000 ) ) ;
#101 = CARTESIAN_POINT ( 'NONE',  ( 0.0000000000000000000, 0.0000000000000000000, -0.5000000000000000000 ) ) ;
#102 = PERSON_AND_ORGANIZATION ( #8, #145 ) ;
#103 = VECTOR ( 'NONE', #123, 1000.000000000000000 ) ;
#104 = CIRCLE ( 'NONE', #115, 44.45000000000001000 ) ;
#105 = EDGE_CURVE ( 'NONE', #117, #16, #132, .T. ) ;
#106 = PERSON_AND_ORGANIZATION ( #8, #145 ) ;
#107 = ORIENTED_EDGE ( 'NONE', *, *, #163, .F. ) ;
#108 = DATE_AND_TIME ( #48, #155 ) ;
#109 = AXIS2_PLACEMENT_3D ( 'NONE', #65, #9, #80 ) ;
#110 = CARTESIAN_POINT ( 'NONE',  ( 0.0000000000000000000, 0.0000000000000000000, 0.5000000000000000000 ) ) ;
#111 = PRODUCT ( 'Web Model 39282_39282', 'Web Model 39282_39282', '', ( #161 ) ) ;
#112 = ORIENTED_EDGE ( 'NONE', *, *, #69, .F. ) ;
#113 = APPROVAL_ROLE ( '' ) ;
#114 = CALENDAR_DATE ( 2018, 9, 10 ) ;
#115 = AXIS2_PLACEMENT_3D ( 'NONE', #171, #39, #138 ) ;
#116 = PRODUCT_RELATED_PRODUCT_CATEGORY ( 'detail', '', ( #111 ) ) ;
#117 = VERTEX_POINT ( 'NONE', #83 ) ;
#118 = APPROVAL ( #58, 'UNSPECIFIED' ) ;
#119 = CARTESIAN_POINT ( 'NONE',  ( 44.45000000000001000, 5.443555022209986500E-015, 0.5000000000000000000 ) ) ;
#120 = ADVANCED_FACE ( 'NONE', ( #154 ), #38, .T. ) ;
#121 = FACE_OUTER_BOUND ( 'NONE', #41, .T. ) ;
#122 = ORIENTED_EDGE ( 'NONE', *, *, #105, .T. ) ;
#123 = DIRECTION ( 'NONE',  ( -0.0000000000000000000, -0.0000000000000000000, -1.000000000000000000 ) ) ;
#124 = PERSON_AND_ORGANIZATION_ROLE ( 'creator' ) ;
#125 = DIRECTION ( 'NONE',  ( 1.000000000000000000, 0.0000000000000000000, 0.0000000000000000000 ) ) ;
#126 = LOCAL_TIME ( 9, 24, 33.00000000000000000, #15 ) ;
#127 = COORDINATED_UNIVERSAL_TIME_OFFSET ( 5, 0, .BEHIND. ) ;
#128 = CC_DESIGN_PERSON_AND_ORGANIZATION_ASSIGNMENT ( #143, #140, ( #12 ) ) ;
#129 = CIRCLE ( 'NONE', #6, 44.45000000000001000 ) ;
#130 = MANIFOLD_SOLID_BREP ( 'Boss-Extrude1', #87 ) ;
#131 = AXIS2_PLACEMENT_3D ( 'NONE', #40, #174, #59 ) ;
#132 = CIRCLE ( 'NONE', #19, 44.45000000000001000 ) ;
#133 = VERTEX_POINT ( 'NONE', #166 ) ;
#134 = FACE_OUTER_BOUND ( 'NONE', #18, .T. ) ;
#135 =( LENGTH_UNIT ( ) NAMED_UNIT ( * ) SI_UNIT ( .MILLI., .METRE. ) );
#136 = APPROVAL_PERSON_ORGANIZATION ( #51, #168, #113 ) ;
#137 = DIRECTION ( 'NONE',  ( -0.0000000000000000000, -0.0000000000000000000, -1.000000000000000000 ) ) ;
#138 = DIRECTION ( 'NONE',  ( 1.000000000000000000, 0.0000000000000000000, 0.0000000000000000000 ) ) ;
#139 = CC_DESIGN_PERSON_AND_ORGANIZATION_ASSIGNMENT ( #102, #42, ( #54 ) ) ;
#140 = PERSON_AND_ORGANIZATION_ROLE ( 'classification_officer' ) ;
#141 = LINE ( 'NONE', #119, #159 ) ;
#142 = ORIENTED_EDGE ( 'NONE', *, *, #31, .T. ) ;
#143 = PERSON_AND_ORGANIZATION ( #8, #145 ) ;
#144 = EDGE_CURVE ( 'NONE', #169, #16, #141, .T. ) ;
#145 = ORGANIZATION ( 'UNSPECIFIED', 'UNSPECIFIED', '' ) ;
#146 = CARTESIAN_POINT ( 'NONE',  ( 44.45000000000001000, 5.443555022209986500E-015, 0.5000000000000000000 ) ) ;
#147 = DATE_AND_TIME ( #160, #1 ) ;
#148 = AXIS2_PLACEMENT_3D ( 'NONE', #94, #5, #97 ) ;
#149 =( NAMED_UNIT ( * ) PLANE_ANGLE_UNIT ( ) SI_UNIT ( $, .RADIAN. ) );
#150 = EDGE_LOOP ( 'NONE', ( #91, #142 ) ) ;
#151 = APPROVAL_ROLE ( '' ) ;
#152 = DATE_TIME_ROLE ( 'classification_date' ) ;
#153 = PERSON_AND_ORGANIZATION_ROLE ( 'design_supplier' ) ;
#154 = FACE_OUTER_BOUND ( 'NONE', #150, .T. ) ;
#155 = LOCAL_TIME ( 9, 24, 33.00000000000000000, #127 ) ;
#156 = LINE ( 'NONE', #85, #103 ) ;
#157 = SHAPE_DEFINITION_REPRESENTATION ( #95, #79 ) ;
#158 = ADVANCED_FACE ( 'NONE', ( #86 ), #173, .T. ) ;
#159 = VECTOR ( 'NONE', #34, 1000.000000000000000 ) ;
#160 = CALENDAR_DATE ( 2018, 9, 10 ) ;
#161 = MECHANICAL_CONTEXT ( 'NONE', #26, 'mechanical' ) ;
#162 = AXIS2_PLACEMENT_3D ( 'NONE', #67, #137, #55 ) ;
#163 = EDGE_CURVE ( 'NONE', #16, #117, #129, .T. ) ;
#164 = DATE_AND_TIME ( #74, #24 ) ;
#165 = LOCAL_TIME ( 9, 24, 33.00000000000000000, #11 ) ;
#166 = CARTESIAN_POINT ( 'NONE',  ( -44.45000000000001000, 0.0000000000000000000, 0.5000000000000000000 ) ) ;
#167 = PERSON_AND_ORGANIZATION ( #8, #145 ) ;
#168 = APPROVAL ( #98, 'UNSPECIFIED' ) ;
#169 = VERTEX_POINT ( 'NONE', #146 ) ;
#170 = APPLICATION_CONTEXT ( 'configuration controlled 3d designs of mechanical parts and assemblies' ) ;
#171 = CARTESIAN_POINT ( 'NONE',  ( 0.0000000000000000000, 0.0000000000000000000, 0.5000000000000000000 ) ) ;
#172 = PERSON_AND_ORGANIZATION_ROLE ( 'design_owner' ) ;
#173 = CYLINDRICAL_SURFACE ( 'NONE', #162, 44.45000000000001000 ) ;
#174 = DIRECTION ( 'NONE',  ( -0.0000000000000000000, -0.0000000000000000000, -1.000000000000000000 ) ) ;
#175 =( GEOMETRIC_REPRESENTATION_CONTEXT ( 3 ) GLOBAL_UNCERTAINTY_ASSIGNED_CONTEXT ( ( #47 ) ) GLOBAL_UNIT_ASSIGNED_CONTEXT ( ( #135, #149, #84 ) ) REPRESENTATION_CONTEXT ( 'NONE', 'WORKASPACE' ) );
ENDSEC;
END-ISO-10303-21;
