ISO-10303-21;
HEADER;
FILE_DESCRIPTION (( 'STEP AP203' ),
    '1' );
FILE_NAME ('Web Model 64402MX_43743.step',
    '2017-10-30T13:10:45',
    ( '' ),
    ( '' ),
    'SwSTEP 2.0',
    'SolidWorks 2016',
    '' );
FILE_SCHEMA (( 'CONFIG_CONTROL_DESIGN' ));
ENDSEC;

DATA;
#1 = LOCAL_TIME ( 9, 10, 45.00000000000000000, #129 ) ;
#2 =( GEOMETRIC_REPRESENTATION_CONTEXT ( 3 ) GLOBAL_UNCERTAINTY_ASSIGNED_CONTEXT ( ( #201 ) ) GLOBAL_UNIT_ASSIGNED_CONTEXT ( ( #144, #87, #141 ) ) REPRESENTATION_CONTEXT ( 'NONE', 'WORKASPACE' ) );
#3 = ORIENTED_EDGE ( 'NONE', *, *, #100, .F. ) ;
#4 = DESIGN_CONTEXT ( 'detailed design', #74, 'design' ) ;
#5 = CARTESIAN_POINT ( 'NONE',  ( 12.49999999999999800, -12.49999999999999600, 4.750000000000000000 ) ) ;
#6 = VECTOR ( 'NONE', #29, 1000.000000000000000 ) ;
#7 = APPROVAL_STATUS ( 'not_yet_approved' ) ;
#8 = VERTEX_POINT ( 'NONE', #28 ) ;
#9 = DIRECTION ( 'NONE',  ( -0.0000000000000000000, -0.0000000000000000000, -1.000000000000000000 ) ) ;
#10 = PERSON ( 'UNSPECIFIED', 'UNSPECIFIED', 'UNSPECIFIED', ('UNSPECIFIED'), ('UNSPECIFIED'), ('UNSPECIFIED') ) ;
#11 = DATE_AND_TIME ( #72, #1 ) ;
#12 = DATE_AND_TIME ( #50, #151 ) ;
#13 = DIRECTION ( 'NONE',  ( 0.0000000000000000000, 0.0000000000000000000, 1.000000000000000000 ) ) ;
#14 = DIRECTION ( 'NONE',  ( -1.000000000000000000, -1.387778780781445700E-016, 0.0000000000000000000 ) ) ;
#15 = CC_DESIGN_PERSON_AND_ORGANIZATION_ASSIGNMENT ( #227, #123, ( #150 ) ) ;
#16 = EDGE_CURVE ( 'NONE', #38, #126, #197, .T. ) ;
#17 = CC_DESIGN_APPROVAL ( #135, ( #60 ) ) ;
#18 = CARTESIAN_POINT ( 'NONE',  ( 12.49999999999999800, 12.50000000000000400, 4.750000000000000000 ) ) ;
#19 = VERTEX_POINT ( 'NONE', #167 ) ;
#20 = ORIENTED_EDGE ( 'NONE', *, *, #16, .F. ) ;
#21 = FACE_OUTER_BOUND ( 'NONE', #88, .T. ) ;
#22 = APPROVAL_ROLE ( '' ) ;
#23 = CALENDAR_DATE ( 2017, 30, 10 ) ;
#24 = DATE_TIME_ROLE ( 'creation_date' ) ;
#25 = APPROVAL_ROLE ( '' ) ;
#26 = EDGE_CURVE ( 'NONE', #192, #38, #205, .T. ) ;
#27 = DATE_TIME_ROLE ( 'classification_date' ) ;
#28 = CARTESIAN_POINT ( 'NONE',  ( 12.49999999999999800, -12.49999999999999600, 4.750000000000000000 ) ) ;
#29 = DIRECTION ( 'NONE',  ( -0.0000000000000000000, -0.0000000000000000000, -1.000000000000000000 ) ) ;
#30 = EDGE_CURVE ( 'NONE', #38, #231, #32, .T. ) ;
#31 = FACE_OUTER_BOUND ( 'NONE', #140, .T. ) ;
#32 = LINE ( 'NONE', #188, #164 ) ;
#33 = ORIENTED_EDGE ( 'NONE', *, *, #104, .T. ) ;
#34 = LINE ( 'NONE', #108, #47 ) ;
#35 = APPROVAL_PERSON_ORGANIZATION ( #156, #178, #25 ) ;
#36 = EDGE_CURVE ( 'NONE', #126, #84, #113, .T. ) ;
#37 = APPROVAL_STATUS ( 'not_yet_approved' ) ;
#38 = VERTEX_POINT ( 'NONE', #216 ) ;
#39 = CARTESIAN_POINT ( 'NONE',  ( -12.50000000000000200, -12.50000000000000000, 4.750000000000000000 ) ) ;
#40 = CC_DESIGN_DATE_AND_TIME_ASSIGNMENT ( #11, #27, ( #155 ) ) ;
#41 = CARTESIAN_POINT ( 'NONE',  ( 12.49999999999999800, -12.49999999999999600, 4.750000000000000000 ) ) ;
#42 = ORIENTED_EDGE ( 'NONE', *, *, #168, .T. ) ;
#43 = DIRECTION ( 'NONE',  ( -0.0000000000000000000, -1.000000000000000000, -0.0000000000000000000 ) ) ;
#44 = LINE ( 'NONE', #78, #218 ) ;
#45 = CC_DESIGN_PERSON_AND_ORGANIZATION_ASSIGNMENT ( #185, #183, ( #155 ) ) ;
#46 = AXIS2_PLACEMENT_3D ( 'NONE', #89, #107, #119 ) ;
#47 = VECTOR ( 'NONE', #226, 1000.000000000000000 ) ;
#48 = EDGE_LOOP ( 'NONE', ( #134, #20, #157, #33 ) ) ;
#49 = APPROVAL_DATE_TIME ( #229, #178 ) ;
#50 = CALENDAR_DATE ( 2017, 30, 10 ) ;
#51 = VERTEX_POINT ( 'NONE', #127 ) ;
#52 = CALENDAR_DATE ( 2017, 30, 10 ) ;
#53 = CARTESIAN_POINT ( 'NONE',  ( -12.50000000000000200, 12.50000000000000000, -4.750000000000000000 ) ) ;
#54 = APPROVAL_STATUS ( 'not_yet_approved' ) ;
#55 = MANIFOLD_SOLID_BREP ( 'Boss-Extrude1', #180 ) ;
#56 = DIRECTION ( 'NONE',  ( -1.000000000000000000, -1.387778780781445700E-016, 0.0000000000000000000 ) ) ;
#57 = PRODUCT_RELATED_PRODUCT_CATEGORY ( 'detail', '', ( #228 ) ) ;
#58 = PERSON_AND_ORGANIZATION_ROLE ( 'design_supplier' ) ;
#59 = COORDINATED_UNIVERSAL_TIME_OFFSET ( 5, 0, .BEHIND. ) ;
#60 = PRODUCT_DEFINITION ( 'UNKNOWN', '', #150, #4 ) ;
#61 = VECTOR ( 'NONE', #70, 1000.000000000000000 ) ;
#62 = PERSON_AND_ORGANIZATION_ROLE ( 'design_owner' ) ;
#63 = CARTESIAN_POINT ( 'NONE',  ( -12.50000000000000200, -12.50000000000000000, -4.750000000000000000 ) ) ;
#64 = DIRECTION ( 'NONE',  ( -1.000000000000000000, 0.0000000000000000000, 0.0000000000000000000 ) ) ;
#65 = CC_DESIGN_PERSON_AND_ORGANIZATION_ASSIGNMENT ( #159, #62, ( #228 ) ) ;
#66 = EDGE_CURVE ( 'NONE', #8, #192, #44, .T. ) ;
#67 = EDGE_CURVE ( 'NONE', #231, #84, #203, .T. ) ;
#68 = ADVANCED_FACE ( 'NONE', ( #143 ), #225, .F. ) ;
#69 = ORGANIZATION ( 'UNSPECIFIED', 'UNSPECIFIED', '' ) ;
#70 = DIRECTION ( 'NONE',  ( 1.000000000000000000, 1.387778780781445700E-016, -0.0000000000000000000 ) ) ;
#71 = APPROVAL_DATE_TIME ( #12, #139 ) ;
#72 = CALENDAR_DATE ( 2017, 30, 10 ) ;
#73 = PLANE ( 'NONE',  #122 ) ;
#74 = APPLICATION_CONTEXT ( 'configuration controlled 3d designs of mechanical parts and assemblies' ) ;
#75 = CC_DESIGN_DATE_AND_TIME_ASSIGNMENT ( #189, #24, ( #60 ) ) ;
#76 = APPLICATION_PROTOCOL_DEFINITION ( 'international standard', 'config_control_design', 1994, #74 ) ;
#77 = LINE ( 'NONE', #158, #61 ) ;
#78 = CARTESIAN_POINT ( 'NONE',  ( 12.49999999999999800, -12.49999999999999600, 4.750000000000000000 ) ) ;
#79 = LINE ( 'NONE', #110, #211 ) ;
#80 = CC_DESIGN_SECURITY_CLASSIFICATION ( #155, ( #150 ) ) ;
#81 = ORIENTED_EDGE ( 'NONE', *, *, #104, .F. ) ;
#82 = DATE_AND_TIME ( #23, #237 ) ;
#83 = ORIENTED_EDGE ( 'NONE', *, *, #36, .F. ) ;
#84 = VERTEX_POINT ( 'NONE', #63 ) ;
#85 = DIRECTION ( 'NONE',  ( 1.000000000000000000, 1.387778780781445700E-016, -0.0000000000000000000 ) ) ;
#86 = PERSON_AND_ORGANIZATION ( #10, #69 ) ;
#87 =( NAMED_UNIT ( * ) PLANE_ANGLE_UNIT ( ) SI_UNIT ( $, .RADIAN. ) );
#88 = EDGE_LOOP ( 'NONE', ( #42, #3, #106, #233 ) ) ;
#89 = CARTESIAN_POINT ( 'NONE',  ( -12.50000000000000200, -12.50000000000000000, 4.750000000000000000 ) ) ;
#90 = DIRECTION ( 'NONE',  ( -1.387778780781445700E-016, 1.000000000000000000, 0.0000000000000000000 ) ) ;
#91 = APPLICATION_CONTEXT ( 'configuration controlled 3d designs of mechanical parts and assemblies' ) ;
#92 = ORIENTED_EDGE ( 'NONE', *, *, #232, .F. ) ;
#93 = CARTESIAN_POINT ( 'NONE',  ( 0.0000000000000000000, 0.0000000000000000000, -4.750000000000000000 ) ) ;
#94 = COORDINATED_UNIVERSAL_TIME_OFFSET ( 5, 0, .BEHIND. ) ;
#95 = LOCAL_TIME ( 9, 10, 45.00000000000000000, #142 ) ;
#96 = CARTESIAN_POINT ( 'NONE',  ( 12.49999999999999800, 12.50000000000000400, 4.750000000000000000 ) ) ;
#97 = EDGE_LOOP ( 'NONE', ( #133, #208, #152, #175 ) ) ;
#98 = APPROVAL_PERSON_ORGANIZATION ( #200, #135, #22 ) ;
#99 = ADVANCED_BREP_SHAPE_REPRESENTATION ( 'Web Model 64402MX_43743', ( #55, #112 ), #2 ) ;
#100 = EDGE_CURVE ( 'NONE', #8, #19, #34, .T. ) ;
#101 = DIRECTION ( 'NONE',  ( 0.0000000000000000000, 1.000000000000000000, 0.0000000000000000000 ) ) ;
#102 = FACE_OUTER_BOUND ( 'NONE', #97, .T. ) ;
#103 = DIRECTION ( 'NONE',  ( 1.000000000000000000, 0.0000000000000000000, 0.0000000000000000000 ) ) ;
#104 = EDGE_CURVE ( 'NONE', #192, #51, #79, .T. ) ;
#105 = CARTESIAN_POINT ( 'NONE',  ( 0.0000000000000000000, 0.0000000000000000000, 0.0000000000000000000 ) ) ;
#106 = ORIENTED_EDGE ( 'NONE', *, *, #193, .F. ) ;
#107 = DIRECTION ( 'NONE',  ( 1.000000000000000000, 0.0000000000000000000, 0.0000000000000000000 ) ) ;
#108 = CARTESIAN_POINT ( 'NONE',  ( 12.49999999999999800, -12.49999999999999600, 4.750000000000000000 ) ) ;
#109 = DIRECTION ( 'NONE',  ( -0.0000000000000000000, -1.000000000000000000, -0.0000000000000000000 ) ) ;
#110 = CARTESIAN_POINT ( 'NONE',  ( 12.49999999999999800, 12.50000000000000400, 4.750000000000000000 ) ) ;
#111 = CARTESIAN_POINT ( 'NONE',  ( 12.49999999999999800, 12.50000000000000400, 4.750000000000000000 ) ) ;
#112 = AXIS2_PLACEMENT_3D ( 'NONE', #105, #182, #103 ) ;
#113 = LINE ( 'NONE', #125, #214 ) ;
#114 = PERSON_AND_ORGANIZATION ( #10, #69 ) ;
#115 = ADVANCED_FACE ( 'NONE', ( #181 ), #213, .F. ) ;
#116 = ADVANCED_FACE ( 'NONE', ( #124 ), #186, .F. ) ;
#117 = PERSON_AND_ORGANIZATION ( #10, #69 ) ;
#118 = PRODUCT_DEFINITION_SHAPE ( 'NONE', 'NONE',  #60 ) ;
#119 = DIRECTION ( 'NONE',  ( 0.0000000000000000000, 0.0000000000000000000, -1.000000000000000000 ) ) ;
#120 = MECHANICAL_CONTEXT ( 'NONE', #91, 'mechanical' ) ;
#121 = ORIENTED_EDGE ( 'NONE', *, *, #26, .T. ) ;
#122 = AXIS2_PLACEMENT_3D ( 'NONE', #138, #202, #195 ) ;
#123 = PERSON_AND_ORGANIZATION_ROLE ( 'creator' ) ;
#124 = FACE_OUTER_BOUND ( 'NONE', #48, .T. ) ;
#125 = CARTESIAN_POINT ( 'NONE',  ( -12.50000000000000200, -12.50000000000000000, -4.750000000000000000 ) ) ;
#126 = VERTEX_POINT ( 'NONE', #53 ) ;
#127 = CARTESIAN_POINT ( 'NONE',  ( 12.49999999999999800, 12.50000000000000400, -4.750000000000000000 ) ) ;
#128 = DIRECTION ( 'NONE',  ( 0.0000000000000000000, -0.0000000000000000000, 1.000000000000000000 ) ) ;
#129 = COORDINATED_UNIVERSAL_TIME_OFFSET ( 5, 0, .BEHIND. ) ;
#130 = AXIS2_PLACEMENT_3D ( 'NONE', #5, #90, #210 ) ;
#131 = EDGE_LOOP ( 'NONE', ( #170, #81, #222, #198 ) ) ;
#132 = ORIENTED_EDGE ( 'NONE', *, *, #66, .T. ) ;
#133 = ORIENTED_EDGE ( 'NONE', *, *, #36, .T. ) ;
#134 = ORIENTED_EDGE ( 'NONE', *, *, #221, .T. ) ;
#135 = APPROVAL ( #7, 'UNSPECIFIED' ) ;
#136 = VECTOR ( 'NONE', #85, 1000.000000000000000 ) ;
#137 = ORIENTED_EDGE ( 'NONE', *, *, #221, .F. ) ;
#138 = CARTESIAN_POINT ( 'NONE',  ( 0.0000000000000000000, 0.0000000000000000000, 4.750000000000000000 ) ) ;
#139 = APPROVAL ( #54, 'UNSPECIFIED' ) ;
#140 = EDGE_LOOP ( 'NONE', ( #169, #194, #132, #121 ) ) ;
#141 =( NAMED_UNIT ( * ) SI_UNIT ( $, .STERADIAN. ) SOLID_ANGLE_UNIT ( ) );
#142 = COORDINATED_UNIVERSAL_TIME_OFFSET ( 5, 0, .BEHIND. ) ;
#143 = FACE_OUTER_BOUND ( 'NONE', #131, .T. ) ;
#144 =( LENGTH_UNIT ( ) NAMED_UNIT ( * ) SI_UNIT ( .MILLI., .METRE. ) );
#145 = ORIENTED_EDGE ( 'NONE', *, *, #168, .F. ) ;
#146 = DIRECTION ( 'NONE',  ( 0.0000000000000000000, 1.000000000000000000, 0.0000000000000000000 ) ) ;
#147 = DIRECTION ( 'NONE',  ( 1.000000000000000000, 0.0000000000000000000, -0.0000000000000000000 ) ) ;
#148 = VECTOR ( 'NONE', #14, 1000.000000000000000 ) ;
#149 = CC_DESIGN_PERSON_AND_ORGANIZATION_ASSIGNMENT ( #117, #58, ( #150 ) ) ;
#150 = PRODUCT_DEFINITION_FORMATION_WITH_SPECIFIED_SOURCE ( 'ANY', '', #228, .NOT_KNOWN. ) ;
#151 = LOCAL_TIME ( 9, 10, 45.00000000000000000, #153 ) ;
#152 = ORIENTED_EDGE ( 'NONE', *, *, #30, .F. ) ;
#153 = COORDINATED_UNIVERSAL_TIME_OFFSET ( 5, 0, .BEHIND. ) ;
#154 = VECTOR ( 'NONE', #56, 1000.000000000000000 ) ;
#155 = SECURITY_CLASSIFICATION ( '', '', #163 ) ;
#156 = PERSON_AND_ORGANIZATION ( #10, #69 ) ;
#157 = ORIENTED_EDGE ( 'NONE', *, *, #26, .F. ) ;
#158 = CARTESIAN_POINT ( 'NONE',  ( 12.49999999999999800, -12.49999999999999600, 4.750000000000000000 ) ) ;
#159 = PERSON_AND_ORGANIZATION ( #10, #69 ) ;
#160 = APPROVAL_PERSON_ORGANIZATION ( #86, #139, #217 ) ;
#161 = CARTESIAN_POINT ( 'NONE',  ( 12.49999999999999800, -12.49999999999999600, -4.750000000000000000 ) ) ;
#162 = LINE ( 'NONE', #199, #220 ) ;
#163 = SECURITY_CLASSIFICATION_LEVEL ( 'unclassified' ) ;
#164 = VECTOR ( 'NONE', #43, 1000.000000000000000 ) ;
#165 = CARTESIAN_POINT ( 'NONE',  ( 12.49999999999999800, 12.50000000000000400, -4.750000000000000000 ) ) ;
#166 = CARTESIAN_POINT ( 'NONE',  ( -12.50000000000000200, -12.50000000000000000, 4.750000000000000000 ) ) ;
#167 = CARTESIAN_POINT ( 'NONE',  ( 12.49999999999999800, -12.49999999999999600, -4.750000000000000000 ) ) ;
#168 = EDGE_CURVE ( 'NONE', #84, #19, #190, .T. ) ;
#169 = ORIENTED_EDGE ( 'NONE', *, *, #30, .T. ) ;
#170 = ORIENTED_EDGE ( 'NONE', *, *, #232, .T. ) ;
#171 = DIRECTION ( 'NONE',  ( 1.387778780781445700E-016, -1.000000000000000000, 0.0000000000000000000 ) ) ;
#172 = VECTOR ( 'NONE', #230, 1000.000000000000000 ) ;
#173 = APPROVAL_DATE_TIME ( #82, #135 ) ;
#174 = CC_DESIGN_APPROVAL ( #139, ( #155 ) ) ;
#175 = ORIENTED_EDGE ( 'NONE', *, *, #16, .T. ) ;
#176 = ADVANCED_FACE ( 'NONE', ( #31 ), #73, .T. ) ;
#177 = DIRECTION ( 'NONE',  ( 1.000000000000000000, 1.387778780781445700E-016, 0.0000000000000000000 ) ) ;
#178 = APPROVAL ( #37, 'UNSPECIFIED' ) ;
#179 = AXIS2_PLACEMENT_3D ( 'NONE', #41, #64, #13 ) ;
#180 = CLOSED_SHELL ( 'NONE', ( #236, #196, #68, #116, #176, #115 ) ) ;
#181 = FACE_OUTER_BOUND ( 'NONE', #187, .T. ) ;
#182 = DIRECTION ( 'NONE',  ( 0.0000000000000000000, 0.0000000000000000000, 1.000000000000000000 ) ) ;
#183 = PERSON_AND_ORGANIZATION_ROLE ( 'classification_officer' ) ;
#184 = PLANE ( 'NONE',  #130 ) ;
#185 = PERSON_AND_ORGANIZATION ( #10, #69 ) ;
#186 = PLANE ( 'NONE',  #209 ) ;
#187 = EDGE_LOOP ( 'NONE', ( #83, #137, #92, #145 ) ) ;
#188 = CARTESIAN_POINT ( 'NONE',  ( -12.50000000000000200, -12.50000000000000000, 4.750000000000000000 ) ) ;
#189 = DATE_AND_TIME ( #204, #235 ) ;
#190 = LINE ( 'NONE', #161, #136 ) ;
#191 = CC_DESIGN_APPROVAL ( #178, ( #150 ) ) ;
#192 = VERTEX_POINT ( 'NONE', #18 ) ;
#193 = EDGE_CURVE ( 'NONE', #231, #8, #77, .T. ) ;
#194 = ORIENTED_EDGE ( 'NONE', *, *, #193, .T. ) ;
#195 = DIRECTION ( 'NONE',  ( 1.000000000000000000, 0.0000000000000000000, -0.0000000000000000000 ) ) ;
#196 = ADVANCED_FACE ( 'NONE', ( #21 ), #184, .F. ) ;
#197 = LINE ( 'NONE', #215, #172 ) ;
#198 = ORIENTED_EDGE ( 'NONE', *, *, #100, .T. ) ;
#199 = CARTESIAN_POINT ( 'NONE',  ( 12.49999999999999800, -12.49999999999999600, -4.750000000000000000 ) ) ;
#200 = PERSON_AND_ORGANIZATION ( #10, #69 ) ;
#201 = UNCERTAINTY_MEASURE_WITH_UNIT (LENGTH_MEASURE( 1.000000000000000100E-005 ), #144, 'distance_accuracy_value', 'NONE');
#202 = DIRECTION ( 'NONE',  ( 0.0000000000000000000, -0.0000000000000000000, 1.000000000000000000 ) ) ;
#203 = LINE ( 'NONE', #166, #6 ) ;
#204 = CALENDAR_DATE ( 2017, 30, 10 ) ;
#205 = LINE ( 'NONE', #111, #148 ) ;
#206 = PERSON_AND_ORGANIZATION_ROLE ( 'creator' ) ;
#207 = PLANE ( 'NONE',  #46 ) ;
#208 = ORIENTED_EDGE ( 'NONE', *, *, #67, .F. ) ;
#209 = AXIS2_PLACEMENT_3D ( 'NONE', #96, #171, #177 ) ;
#210 = DIRECTION ( 'NONE',  ( -1.000000000000000000, -1.387778780781445700E-016, 0.0000000000000000000 ) ) ;
#211 = VECTOR ( 'NONE', #9, 1000.000000000000000 ) ;
#212 = LINE ( 'NONE', #165, #154 ) ;
#213 = PLANE ( 'NONE',  #219 ) ;
#214 = VECTOR ( 'NONE', #109, 1000.000000000000000 ) ;
#215 = CARTESIAN_POINT ( 'NONE',  ( -12.50000000000000200, 12.50000000000000000, 4.750000000000000000 ) ) ;
#216 = CARTESIAN_POINT ( 'NONE',  ( -12.50000000000000200, 12.50000000000000000, 4.750000000000000000 ) ) ;
#217 = APPROVAL_ROLE ( '' ) ;
#218 = VECTOR ( 'NONE', #146, 1000.000000000000000 ) ;
#219 = AXIS2_PLACEMENT_3D ( 'NONE', #93, #128, #147 ) ;
#220 = VECTOR ( 'NONE', #101, 1000.000000000000000 ) ;
#221 = EDGE_CURVE ( 'NONE', #51, #126, #212, .T. ) ;
#222 = ORIENTED_EDGE ( 'NONE', *, *, #66, .F. ) ;
#223 = APPLICATION_PROTOCOL_DEFINITION ( 'international standard', 'config_control_design', 1994, #91 ) ;
#224 = SHAPE_DEFINITION_REPRESENTATION ( #118, #99 ) ;
#225 = PLANE ( 'NONE',  #179 ) ;
#226 = DIRECTION ( 'NONE',  ( -0.0000000000000000000, -0.0000000000000000000, -1.000000000000000000 ) ) ;
#227 = PERSON_AND_ORGANIZATION ( #10, #69 ) ;
#228 = PRODUCT ( 'Web Model 64402MX_43743', 'Web Model 64402MX_43743', '', ( #120 ) ) ;
#229 = DATE_AND_TIME ( #52, #95 ) ;
#230 = DIRECTION ( 'NONE',  ( -0.0000000000000000000, -0.0000000000000000000, -1.000000000000000000 ) ) ;
#231 = VERTEX_POINT ( 'NONE', #39 ) ;
#232 = EDGE_CURVE ( 'NONE', #19, #51, #162, .T. ) ;
#233 = ORIENTED_EDGE ( 'NONE', *, *, #67, .T. ) ;
#234 = CC_DESIGN_PERSON_AND_ORGANIZATION_ASSIGNMENT ( #114, #206, ( #60 ) ) ;
#235 = LOCAL_TIME ( 9, 10, 45.00000000000000000, #59 ) ;
#236 = ADVANCED_FACE ( 'NONE', ( #102 ), #207, .F. ) ;
#237 = LOCAL_TIME ( 9, 10, 45.00000000000000000, #94 ) ;
ENDSEC;
END-ISO-10303-21;
