ISO-10303-21;
HEADER;
FILE_DESCRIPTION (( 'STEP AP203' ),
    '1' );
FILE_NAME ('Web Model 13402_13406.step',
    '2021-06-30T20:44:46',
    ( '' ),
    ( '' ),
    'SwSTEP 2.0',
    'SolidWorks 2018',
    '' );
FILE_SCHEMA (( 'CONFIG_CONTROL_DESIGN' ));
ENDSEC;

DATA;
#1 = PLANE ( 'NONE',  #216 ) ;
#2 = CC_DESIGN_APPROVAL ( #156, ( #234 ) ) ;
#3 = CARTESIAN_POINT ( 'NONE',  ( -12.50000000000000000, 12.50000000000000000, 3.000000000000000000 ) ) ;
#4 = EDGE_CURVE ( 'NONE', #103, #124, #228, .T. ) ;
#5 = DATE_TIME_ROLE ( 'classification_date' ) ;
#6 = CC_DESIGN_PERSON_AND_ORGANIZATION_ASSIGNMENT ( #220, #188, ( #234 ) ) ;
#7 = LOCAL_TIME ( 16, 44, 46.00000000000000000, #48 ) ;
#8 = ORIENTED_EDGE ( 'NONE', *, *, #175, .T. ) ;
#9 = ADVANCED_FACE ( 'NONE', ( #147 ), #224, .F. ) ;
#10 = DATE_AND_TIME ( #190, #78 ) ;
#11 = COORDINATED_UNIVERSAL_TIME_OFFSET ( 5, 0, .BEHIND. ) ;
#12 = VERTEX_POINT ( 'NONE', #226 ) ;
#13 = CALENDAR_DATE ( 2021, 30, 6 ) ;
#14 = EDGE_CURVE ( 'NONE', #30, #61, #177, .T. ) ;
#15 = EDGE_LOOP ( 'NONE', ( #152, #25, #144, #160 ) ) ;
#16 = PERSON_AND_ORGANIZATION_ROLE ( 'design_owner' ) ;
#17 = CARTESIAN_POINT ( 'NONE',  ( 12.50000000000000000, 12.50000000000000000, 0.000000000000000000 ) ) ;
#18 = DIRECTION ( 'NONE',  ( -1.000000000000000000, -1.387778780781445429E-16, 0.000000000000000000 ) ) ;
#19 = ORIENTED_EDGE ( 'NONE', *, *, #137, .T. ) ;
#20 = DIRECTION ( 'NONE',  ( -1.387778780781445676E-16, 1.000000000000000000, -0.000000000000000000 ) ) ;
#21 = VECTOR ( 'NONE', #182, 1000.000000000000000 ) ;
#22 = APPROVAL_STATUS ( 'not_yet_approved' ) ;
#23 = LOCAL_TIME ( 16, 44, 46.00000000000000000, #68 ) ;
#24 = LINE ( 'NONE', #180, #21 ) ;
#25 = ORIENTED_EDGE ( 'NONE', *, *, #4, .F. ) ;
#26 = EDGE_CURVE ( 'NONE', #124, #168, #65, .T. ) ;
#27 = SECURITY_CLASSIFICATION ( '', '', #133 ) ;
#28 = APPROVAL_DATE_TIME ( #10, #156 ) ;
#29 = VECTOR ( 'NONE', #165, 1000.000000000000000 ) ;
#30 = VERTEX_POINT ( 'NONE', #204 ) ;
#31 = CC_DESIGN_DATE_AND_TIME_ASSIGNMENT ( #102, #5, ( #27 ) ) ;
#32 = LINE ( 'NONE', #71, #170 ) ;
#33 = DIRECTION ( 'NONE',  ( -1.000000000000000000, -0.000000000000000000, -0.000000000000000000 ) ) ;
#34 = ORIENTED_EDGE ( 'NONE', *, *, #162, .F. ) ;
#35 = CARTESIAN_POINT ( 'NONE',  ( -12.50000000000000000, 12.50000000000000000, 0.000000000000000000 ) ) ;
#36 = PLANE ( 'NONE',  #101 ) ;
#37 = CARTESIAN_POINT ( 'NONE',  ( 12.50000000000000355, -12.50000000000000000, 3.000000000000000000 ) ) ;
#38 = CARTESIAN_POINT ( 'NONE',  ( -12.50000000000000000, 12.50000000000000000, 3.000000000000000000 ) ) ;
#39 = EDGE_CURVE ( 'NONE', #46, #12, #119, .T. ) ;
#40 = PRODUCT_RELATED_PRODUCT_CATEGORY ( 'detail', '', ( #235 ) ) ;
#41 = COORDINATED_UNIVERSAL_TIME_OFFSET ( 5, 0, .BEHIND. ) ;
#42 = VECTOR ( 'NONE', #163, 1000.000000000000000 ) ;
#43 = CALENDAR_DATE ( 2021, 30, 6 ) ;
#44 = ADVANCED_FACE ( 'NONE', ( #221 ), #36, .T. ) ;
#45 = VECTOR ( 'NONE', #72, 1000.000000000000000 ) ;
#46 = VERTEX_POINT ( 'NONE', #115 ) ;
#47 = APPROVAL ( #22, 'UNSPECIFIED' ) ;
#48 = COORDINATED_UNIVERSAL_TIME_OFFSET ( 5, 0, .BEHIND. ) ;
#49 = ORIENTED_EDGE ( 'NONE', *, *, #26, .F. ) ;
#50 = DIRECTION ( 'NONE',  ( 1.000000000000000000, 1.387778780781445429E-16, -0.000000000000000000 ) ) ;
#51 = CARTESIAN_POINT ( 'NONE',  ( -12.49999999999999645, -12.50000000000000000, 3.000000000000000000 ) ) ;
#52 = CARTESIAN_POINT ( 'NONE',  ( -12.50000000000000000, 12.50000000000000000, 0.000000000000000000 ) ) ;
#53 = DIRECTION ( 'NONE',  ( -0.000000000000000000, 0.000000000000000000, 1.000000000000000000 ) ) ;
#54 = PLANE ( 'NONE',  #171 ) ;
#55 = AXIS2_PLACEMENT_3D ( 'NONE', #91, #18, #236 ) ;
#56 = APPROVAL_ROLE ( '' ) ;
#57 = DATE_TIME_ROLE ( 'creation_date' ) ;
#58 = ORIENTED_EDGE ( 'NONE', *, *, #162, .T. ) ;
#59 = ORGANIZATION ( 'UNSPECIFIED', 'UNSPECIFIED', '' ) ;
#60 = ADVANCED_FACE ( 'NONE', ( #195 ), #126, .F. ) ;
#61 = VERTEX_POINT ( 'NONE', #35 ) ;
#62 = DATE_AND_TIME ( #232, #104 ) ;
#63 = EDGE_LOOP ( 'NONE', ( #58, #19, #141, #8 ) ) ;
#64 = CC_DESIGN_APPROVAL ( #237, ( #169 ) ) ;
#65 = LINE ( 'NONE', #187, #45 ) ;
#66 =( NAMED_UNIT ( * ) PLANE_ANGLE_UNIT ( ) SI_UNIT ( $, .RADIAN. ) );
#67 = DIRECTION ( 'NONE',  ( -0.000000000000000000, 0.000000000000000000, 1.000000000000000000 ) ) ;
#68 = COORDINATED_UNIVERSAL_TIME_OFFSET ( 5, 0, .BEHIND. ) ;
#69 = LINE ( 'NONE', #181, #107 ) ;
#70 = CARTESIAN_POINT ( 'NONE',  ( 12.50000000000000000, 12.50000000000000000, 3.000000000000000000 ) ) ;
#71 = CARTESIAN_POINT ( 'NONE',  ( 12.50000000000000000, 12.50000000000000000, 3.000000000000000000 ) ) ;
#72 = DIRECTION ( 'NONE',  ( 1.000000000000000000, 0.000000000000000000, 0.000000000000000000 ) ) ;
#73 = LINE ( 'NONE', #52, #192 ) ;
#74 = PERSON_AND_ORGANIZATION_ROLE ( 'classification_officer' ) ;
#75 = EDGE_LOOP ( 'NONE', ( #196, #150, #207, #174 ) ) ;
#76 = APPROVAL_STATUS ( 'not_yet_approved' ) ;
#77 = PERSON_AND_ORGANIZATION_ROLE ( 'design_supplier' ) ;
#78 = LOCAL_TIME ( 16, 44, 46.00000000000000000, #11 ) ;
#79 = EDGE_LOOP ( 'NONE', ( #215, #49, #218, #173 ) ) ;
#80 = CC_DESIGN_APPROVAL ( #47, ( #27 ) ) ;
#81 = FACE_OUTER_BOUND ( 'NONE', #15, .T. ) ;
#82 = DATE_AND_TIME ( #193, #7 ) ;
#83 = ORIENTED_EDGE ( 'NONE', *, *, #205, .T. ) ;
#84 = APPROVAL_PERSON_ORGANIZATION ( #185, #47, #208 ) ;
#85 = VECTOR ( 'NONE', #129, 1000.000000000000000 ) ;
#86 = CC_DESIGN_SECURITY_CLASSIFICATION ( #27, ( #169 ) ) ;
#87 =( NAMED_UNIT ( * ) SI_UNIT ( $, .STERADIAN. ) SOLID_ANGLE_UNIT ( ) );
#88 = COORDINATED_UNIVERSAL_TIME_OFFSET ( 5, 0, .BEHIND. ) ;
#89 = LINE ( 'NONE', #143, #233 ) ;
#90 = DIRECTION ( 'NONE',  ( 1.000000000000000000, 0.000000000000000000, 0.000000000000000000 ) ) ;
#91 = CARTESIAN_POINT ( 'NONE',  ( 12.50000000000000000, 12.50000000000000000, 3.000000000000000000 ) ) ;
#92 = DIRECTION ( 'NONE',  ( 0.000000000000000000, 1.000000000000000000, 0.000000000000000000 ) ) ;
#93 = DIRECTION ( 'NONE',  ( 0.000000000000000000, -0.000000000000000000, -1.000000000000000000 ) ) ;
#94 = DIRECTION ( 'NONE',  ( 1.000000000000000000, 0.000000000000000000, 0.000000000000000000 ) ) ;
#95 = DIRECTION ( 'NONE',  ( 0.000000000000000000, -1.000000000000000000, 0.000000000000000000 ) ) ;
#96 = LINE ( 'NONE', #158, #186 ) ;
#97 = DESIGN_CONTEXT ( 'detailed design', #140, 'design' ) ;
#98 = UNCERTAINTY_MEASURE_WITH_UNIT (LENGTH_MEASURE( 1.000000000000000082E-05 ), #179, 'distance_accuracy_value', 'NONE');
#99 = ORIENTED_EDGE ( 'NONE', *, *, #127, .T. ) ;
#100 = SHAPE_DEFINITION_REPRESENTATION ( #213, #128 ) ;
#101 = AXIS2_PLACEMENT_3D ( 'NONE', #161, #53, #183 ) ;
#102 = DATE_AND_TIME ( #43, #23 ) ;
#103 = VERTEX_POINT ( 'NONE', #51 ) ;
#104 = LOCAL_TIME ( 16, 44, 46.00000000000000000, #41 ) ;
#105 = FACE_OUTER_BOUND ( 'NONE', #75, .T. ) ;
#106 = EDGE_LOOP ( 'NONE', ( #155, #211, #34, #83 ) ) ;
#107 = VECTOR ( 'NONE', #223, 1000.000000000000000 ) ;
#108 = ORIENTED_EDGE ( 'NONE', *, *, #14, .F. ) ;
#109 = CARTESIAN_POINT ( 'NONE',  ( -12.49999999999999645, -12.50000000000000000, 3.000000000000000000 ) ) ;
#110 = DIRECTION ( 'NONE',  ( 0.000000000000000000, 0.000000000000000000, 1.000000000000000000 ) ) ;
#111 = EDGE_LOOP ( 'NONE', ( #99, #108, #194, #117 ) ) ;
#112 = CARTESIAN_POINT ( 'NONE',  ( -12.49999999999999645, -12.50000000000000000, 0.000000000000000000 ) ) ;
#113 = CARTESIAN_POINT ( 'NONE',  ( -12.49999999999999645, -12.50000000000000000, 3.000000000000000000 ) ) ;
#114 = PERSON_AND_ORGANIZATION_ROLE ( 'creator' ) ;
#115 = CARTESIAN_POINT ( 'NONE',  ( 12.50000000000000000, 12.50000000000000000, 3.000000000000000000 ) ) ;
#116 = APPROVAL_ROLE ( '' ) ;
#117 = ORIENTED_EDGE ( 'NONE', *, *, #39, .T. ) ;
#118 = PERSON_AND_ORGANIZATION ( #120, #59 ) ;
#119 = LINE ( 'NONE', #70, #29 ) ;
#120 = PERSON ( 'UNSPECIFIED', 'UNSPECIFIED', 'UNSPECIFIED', ('UNSPECIFIED'), ('UNSPECIFIED'), ('UNSPECIFIED') ) ;
#121 = LINE ( 'NONE', #17, #130 ) ;
#122 = APPLICATION_PROTOCOL_DEFINITION ( 'international standard', 'config_control_design', 1994, #142 ) ;
#123 = CARTESIAN_POINT ( 'NONE',  ( 0.000000000000000000, 0.000000000000000000, 0.000000000000000000 ) ) ;
#124 = VERTEX_POINT ( 'NONE', #112 ) ;
#125 = DIRECTION ( 'NONE',  ( 0.000000000000000000, -0.000000000000000000, 1.000000000000000000 ) ) ;
#126 = PLANE ( 'NONE',  #55 ) ;
#127 = EDGE_CURVE ( 'NONE', #12, #61, #73, .T. ) ;
#128 = ADVANCED_BREP_SHAPE_REPRESENTATION ( 'Web Model 13402_13406', ( #154, #217 ), #231 ) ;
#129 = DIRECTION ( 'NONE',  ( -0.000000000000000000, -0.000000000000000000, -1.000000000000000000 ) ) ;
#130 = VECTOR ( 'NONE', #222, 1000.000000000000000 ) ;
#131 = EDGE_CURVE ( 'NONE', #61, #124, #24, .T. ) ;
#132 = APPLICATION_PROTOCOL_DEFINITION ( 'international standard', 'config_control_design', 1994, #140 ) ;
#133 = SECURITY_CLASSIFICATION_LEVEL ( 'unclassified' ) ;
#134 = PERSON_AND_ORGANIZATION ( #120, #59 ) ;
#135 = FACE_OUTER_BOUND ( 'NONE', #79, .T. ) ;
#136 = LINE ( 'NONE', #37, #42 ) ;
#137 = EDGE_CURVE ( 'NONE', #46, #30, #96, .T. ) ;
#138 = PERSON_AND_ORGANIZATION ( #120, #59 ) ;
#139 = CC_DESIGN_DATE_AND_TIME_ASSIGNMENT ( #200, #57, ( #234 ) ) ;
#140 = APPLICATION_CONTEXT ( 'configuration controlled 3d designs of mechanical parts and assemblies' ) ;
#141 = ORIENTED_EDGE ( 'NONE', *, *, #145, .T. ) ;
#142 = APPLICATION_CONTEXT ( 'configuration controlled 3d designs of mechanical parts and assemblies' ) ;
#143 = CARTESIAN_POINT ( 'NONE',  ( -12.49999999999999645, -12.50000000000000000, 3.000000000000000000 ) ) ;
#144 = ORIENTED_EDGE ( 'NONE', *, *, #145, .F. ) ;
#145 = EDGE_CURVE ( 'NONE', #30, #103, #69, .T. ) ;
#146 = PERSON_AND_ORGANIZATION ( #120, #59 ) ;
#147 = FACE_OUTER_BOUND ( 'NONE', #111, .T. ) ;
#148 = ADVANCED_FACE ( 'NONE', ( #135 ), #203, .F. ) ;
#149 = EDGE_CURVE ( 'NONE', #168, #12, #121, .T. ) ;
#150 = ORIENTED_EDGE ( 'NONE', *, *, #205, .F. ) ;
#151 = CC_DESIGN_PERSON_AND_ORGANIZATION_ASSIGNMENT ( #138, #114, ( #169 ) ) ;
#152 = ORIENTED_EDGE ( 'NONE', *, *, #131, .T. ) ;
#153 = APPROVAL_PERSON_ORGANIZATION ( #118, #156, #56 ) ;
#154 = MANIFOLD_SOLID_BREP ( 'Boss-Extrude1', #229 ) ;
#155 = ORIENTED_EDGE ( 'NONE', *, *, #149, .T. ) ;
#156 = APPROVAL ( #189, 'UNSPECIFIED' ) ;
#157 = CARTESIAN_POINT ( 'NONE',  ( -12.50000000000000000, 12.50000000000000000, 3.000000000000000000 ) ) ;
#158 = CARTESIAN_POINT ( 'NONE',  ( -12.50000000000000000, 12.50000000000000000, 3.000000000000000000 ) ) ;
#159 = CARTESIAN_POINT ( 'NONE',  ( 12.50000000000000355, -12.50000000000000000, 3.000000000000000000 ) ) ;
#160 = ORIENTED_EDGE ( 'NONE', *, *, #14, .T. ) ;
#161 = CARTESIAN_POINT ( 'NONE',  ( 0.000000000000000000, 0.000000000000000000, 3.000000000000000000 ) ) ;
#162 = EDGE_CURVE ( 'NONE', #202, #46, #32, .T. ) ;
#163 = DIRECTION ( 'NONE',  ( -0.000000000000000000, -0.000000000000000000, -1.000000000000000000 ) ) ;
#164 = DIRECTION ( 'NONE',  ( -0.000000000000000000, -0.000000000000000000, -1.000000000000000000 ) ) ;
#165 = DIRECTION ( 'NONE',  ( -0.000000000000000000, -0.000000000000000000, -1.000000000000000000 ) ) ;
#166 = CC_DESIGN_PERSON_AND_ORGANIZATION_ASSIGNMENT ( #176, #77, ( #169 ) ) ;
#167 = LOCAL_TIME ( 16, 44, 46.00000000000000000, #88 ) ;
#168 = VERTEX_POINT ( 'NONE', #201 ) ;
#169 = PRODUCT_DEFINITION_FORMATION_WITH_SPECIFIED_SOURCE ( 'ANY', '', #235, .NOT_KNOWN. ) ;
#170 = VECTOR ( 'NONE', #20, 1000.000000000000000 ) ;
#171 = AXIS2_PLACEMENT_3D ( 'NONE', #109, #92, #125 ) ;
#172 = PERSON_AND_ORGANIZATION ( #120, #59 ) ;
#173 = ORIENTED_EDGE ( 'NONE', *, *, #127, .F. ) ;
#174 = ORIENTED_EDGE ( 'NONE', *, *, #4, .T. ) ;
#175 = EDGE_CURVE ( 'NONE', #103, #202, #89, .T. ) ;
#176 = PERSON_AND_ORGANIZATION ( #120, #59 ) ;
#177 = LINE ( 'NONE', #38, #206 ) ;
#178 = CC_DESIGN_PERSON_AND_ORGANIZATION_ASSIGNMENT ( #172, #74, ( #27 ) ) ;
#179 =( LENGTH_UNIT ( ) NAMED_UNIT ( * ) SI_UNIT ( .MILLI., .METRE. ) );
#180 = CARTESIAN_POINT ( 'NONE',  ( -12.50000000000000000, 12.50000000000000000, 0.000000000000000000 ) ) ;
#181 = CARTESIAN_POINT ( 'NONE',  ( -12.50000000000000000, 12.50000000000000000, 3.000000000000000000 ) ) ;
#182 = DIRECTION ( 'NONE',  ( 1.387778780781445676E-16, -1.000000000000000000, 0.000000000000000000 ) ) ;
#183 = DIRECTION ( 'NONE',  ( 1.000000000000000000, 0.000000000000000000, 0.000000000000000000 ) ) ;
#184 = DIRECTION ( 'NONE',  ( -1.387778780781445429E-16, 1.000000000000000000, 0.000000000000000000 ) ) ;
#185 = PERSON_AND_ORGANIZATION ( #120, #59 ) ;
#186 = VECTOR ( 'NONE', #33, 1000.000000000000000 ) ;
#187 = CARTESIAN_POINT ( 'NONE',  ( -12.49999999999999645, -12.50000000000000000, 0.000000000000000000 ) ) ;
#188 = PERSON_AND_ORGANIZATION_ROLE ( 'creator' ) ;
#189 = APPROVAL_STATUS ( 'not_yet_approved' ) ;
#190 = CALENDAR_DATE ( 2021, 30, 6 ) ;
#191 = CC_DESIGN_PERSON_AND_ORGANIZATION_ASSIGNMENT ( #134, #16, ( #235 ) ) ;
#192 = VECTOR ( 'NONE', #197, 1000.000000000000000 ) ;
#193 = CALENDAR_DATE ( 2021, 30, 6 ) ;
#194 = ORIENTED_EDGE ( 'NONE', *, *, #137, .F. ) ;
#195 = FACE_OUTER_BOUND ( 'NONE', #106, .T. ) ;
#196 = ORIENTED_EDGE ( 'NONE', *, *, #26, .T. ) ;
#197 = DIRECTION ( 'NONE',  ( -1.000000000000000000, -0.000000000000000000, -0.000000000000000000 ) ) ;
#198 = MECHANICAL_CONTEXT ( 'NONE', #142, 'mechanical' ) ;
#199 = AXIS2_PLACEMENT_3D ( 'NONE', #123, #67, #225 ) ;
#200 = DATE_AND_TIME ( #13, #167 ) ;
#201 = CARTESIAN_POINT ( 'NONE',  ( 12.50000000000000355, -12.50000000000000000, 0.000000000000000000 ) ) ;
#202 = VERTEX_POINT ( 'NONE', #159 ) ;
#203 = PLANE ( 'NONE',  #199 ) ;
#204 = CARTESIAN_POINT ( 'NONE',  ( -12.50000000000000000, 12.50000000000000000, 3.000000000000000000 ) ) ;
#205 = EDGE_CURVE ( 'NONE', #202, #168, #136, .T. ) ;
#206 = VECTOR ( 'NONE', #164, 1000.000000000000000 ) ;
#207 = ORIENTED_EDGE ( 'NONE', *, *, #175, .F. ) ;
#208 = APPROVAL_ROLE ( '' ) ;
#209 = ADVANCED_FACE ( 'NONE', ( #81 ), #1, .F. ) ;
#210 = APPROVAL_DATE_TIME ( #62, #237 ) ;
#211 = ORIENTED_EDGE ( 'NONE', *, *, #39, .F. ) ;
#212 = AXIS2_PLACEMENT_3D ( 'NONE', #3, #95, #93 ) ;
#213 = PRODUCT_DEFINITION_SHAPE ( 'NONE', 'NONE',  #234 ) ;
#214 = ADVANCED_FACE ( 'NONE', ( #105 ), #54, .F. ) ;
#215 = ORIENTED_EDGE ( 'NONE', *, *, #149, .F. ) ;
#216 = AXIS2_PLACEMENT_3D ( 'NONE', #157, #50, #184 ) ;
#217 = AXIS2_PLACEMENT_3D ( 'NONE', #219, #110, #94 ) ;
#218 = ORIENTED_EDGE ( 'NONE', *, *, #131, .F. ) ;
#219 = CARTESIAN_POINT ( 'NONE',  ( 0.000000000000000000, 0.000000000000000000, 0.000000000000000000 ) ) ;
#220 = PERSON_AND_ORGANIZATION ( #120, #59 ) ;
#221 = FACE_OUTER_BOUND ( 'NONE', #63, .T. ) ;
#222 = DIRECTION ( 'NONE',  ( -1.387778780781445676E-16, 1.000000000000000000, -0.000000000000000000 ) ) ;
#223 = DIRECTION ( 'NONE',  ( 1.387778780781445676E-16, -1.000000000000000000, 0.000000000000000000 ) ) ;
#224 = PLANE ( 'NONE',  #212 ) ;
#225 = DIRECTION ( 'NONE',  ( 1.000000000000000000, 0.000000000000000000, 0.000000000000000000 ) ) ;
#226 = CARTESIAN_POINT ( 'NONE',  ( 12.50000000000000000, 12.50000000000000000, 0.000000000000000000 ) ) ;
#227 = APPROVAL_DATE_TIME ( #82, #47 ) ;
#228 = LINE ( 'NONE', #113, #85 ) ;
#229 = CLOSED_SHELL ( 'NONE', ( #60, #9, #209, #214, #44, #148 ) ) ;
#230 = APPROVAL_PERSON_ORGANIZATION ( #146, #237, #116 ) ;
#231 =( GEOMETRIC_REPRESENTATION_CONTEXT ( 3 ) GLOBAL_UNCERTAINTY_ASSIGNED_CONTEXT ( ( #98 ) ) GLOBAL_UNIT_ASSIGNED_CONTEXT ( ( #179, #66, #87 ) ) REPRESENTATION_CONTEXT ( 'NONE', 'WORKASPACE' ) );
#232 = CALENDAR_DATE ( 2021, 30, 6 ) ;
#233 = VECTOR ( 'NONE', #90, 1000.000000000000000 ) ;
#234 = PRODUCT_DEFINITION ( 'UNKNOWN', '', #169, #97 ) ;
#235 = PRODUCT ( 'Web Model 13402_13406', 'Web Model 13402_13406', '', ( #198 ) ) ;
#236 = DIRECTION ( 'NONE',  ( 1.387778780781445429E-16, -1.000000000000000000, 0.000000000000000000 ) ) ;
#237 = APPROVAL ( #76, 'UNSPECIFIED' ) ;
ENDSEC;
END-ISO-10303-21;
