ISO-10303-21;
HEADER;
FILE_DESCRIPTION (( 'STEP AP203' ),
    '1' );
FILE_NAME ('Web Model 83103.STEP',
    '2017-02-01T15:10:05',
    ( '' ),
    ( '' ),
    'SwSTEP 2.0',
    'SolidWorks 2016',
    '' );
FILE_SCHEMA (( 'CONFIG_CONTROL_DESIGN' ));
ENDSEC;

DATA;
#1 =( LENGTH_UNIT ( ) NAMED_UNIT ( * ) SI_UNIT ( .MILLI., .METRE. ) );
#2 = CC_DESIGN_PERSON_AND_ORGANIZATION_ASSIGNMENT ( #97, #167, ( #54 ) ) ;
#3 = APPROVAL_PERSON_ORGANIZATION ( #38, #23, #67 ) ;
#4 = CYLINDRICAL_SURFACE ( 'NONE', #146, 12.50000000000000000 ) ;
#5 = AXIS2_PLACEMENT_3D ( 'NONE', #173, #42, #78 ) ;
#6 = PRODUCT_DEFINITION ( 'UNKNOWN', '', #109, #115 ) ;
#7 = ORIENTED_EDGE ( 'NONE', *, *, #130, .T. ) ;
#8 = APPROVAL_DATE_TIME ( #71, #90 ) ;
#9 = CYLINDRICAL_SURFACE ( 'NONE', #5, 12.50000000000000000 ) ;
#10 = DATE_AND_TIME ( #120, #19 ) ;
#11 = VERTEX_POINT ( 'NONE', #162 ) ;
#12 = ORIENTED_EDGE ( 'NONE', *, *, #50, .F. ) ;
#13 = EDGE_CURVE ( 'NONE', #129, #11, #51, .T. ) ;
#14 = ADVANCED_FACE ( 'NONE', ( #17 ), #4, .T. ) ;
#15 = CARTESIAN_POINT ( 'NONE',  ( 12.50000000000000000, 1.530808498934191500E-015, 0.0000000000000000000 ) ) ;
#16 = SHAPE_DEFINITION_REPRESENTATION ( #122, #111 ) ;
#17 = FACE_OUTER_BOUND ( 'NONE', #46, .T. ) ;
#18 = CARTESIAN_POINT ( 'NONE',  ( 0.0000000000000000000, 0.0000000000000000000, 0.2000000000000000100 ) ) ;
#19 = LOCAL_TIME ( 10, 10, 5.000000000000000000, #66 ) ;
#20 = DIRECTION ( 'NONE',  ( 0.0000000000000000000, 0.0000000000000000000, 1.000000000000000000 ) ) ;
#21 = DIRECTION ( 'NONE',  ( 1.000000000000000000, 0.0000000000000000000, 0.0000000000000000000 ) ) ;
#22 = CALENDAR_DATE ( 2017, 1, 2 ) ;
#23 = APPROVAL ( #94, 'UNSPECIFIED' ) ;
#24 = CALENDAR_DATE ( 2017, 1, 2 ) ;
#25 = ORIENTED_EDGE ( 'NONE', *, *, #74, .T. ) ;
#26 = LINE ( 'NONE', #85, #101 ) ;
#27 = ADVANCED_FACE ( 'NONE', ( #158 ), #9, .T. ) ;
#28 = PERSON_AND_ORGANIZATION ( #105, #163 ) ;
#29 = ORIENTED_EDGE ( 'NONE', *, *, #50, .T. ) ;
#30 = CC_DESIGN_APPROVAL ( #90, ( #109 ) ) ;
#31 = ADVANCED_FACE ( 'NONE', ( #116 ), #119, .T. ) ;
#32 = DIRECTION ( 'NONE',  ( 0.0000000000000000000, 0.0000000000000000000, 1.000000000000000000 ) ) ;
#33 = CARTESIAN_POINT ( 'NONE',  ( 0.0000000000000000000, 0.0000000000000000000, 0.0000000000000000000 ) ) ;
#34 = ORIENTED_EDGE ( 'NONE', *, *, #13, .F. ) ;
#35 = LOCAL_TIME ( 10, 10, 5.000000000000000000, #157 ) ;
#36 = PERSON_AND_ORGANIZATION_ROLE ( 'design_supplier' ) ;
#37 = AXIS2_PLACEMENT_3D ( 'NONE', #153, #58, #57 ) ;
#38 = PERSON_AND_ORGANIZATION ( #105, #163 ) ;
#39 = EDGE_LOOP ( 'NONE', ( #12, #89, #7, #25 ) ) ;
#40 = DATE_AND_TIME ( #112, #35 ) ;
#41 = LINE ( 'NONE', #103, #82 ) ;
#42 = DIRECTION ( 'NONE',  ( -0.0000000000000000000, -0.0000000000000000000, -1.000000000000000000 ) ) ;
#43 = DIRECTION ( 'NONE',  ( 0.0000000000000000000, 0.0000000000000000000, 1.000000000000000000 ) ) ;
#44 = FACE_OUTER_BOUND ( 'NONE', #70, .T. ) ;
#45 = PRODUCT ( 'Web Model 83103', 'Web Model 83103', '', ( #68 ) ) ;
#46 = EDGE_LOOP ( 'NONE', ( #170, #29, #86, #132 ) ) ;
#47 = CC_DESIGN_PERSON_AND_ORGANIZATION_ASSIGNMENT ( #150, #36, ( #109 ) ) ;
#48 = APPROVAL ( #123, 'UNSPECIFIED' ) ;
#49 = APPROVAL_DATE_TIME ( #10, #48 ) ;
#50 = EDGE_CURVE ( 'NONE', #126, #129, #41, .T. ) ;
#51 = CIRCLE ( 'NONE', #110, 12.50000000000000000 ) ;
#52 = DIRECTION ( 'NONE',  ( 1.000000000000000000, 0.0000000000000000000, 0.0000000000000000000 ) ) ;
#53 = PERSON_AND_ORGANIZATION ( #105, #163 ) ;
#54 = SECURITY_CLASSIFICATION ( '', '', #104 ) ;
#55 = CARTESIAN_POINT ( 'NONE',  ( 0.0000000000000000000, 0.0000000000000000000, 0.2000000000000000100 ) ) ;
#56 = ORIENTED_EDGE ( 'NONE', *, *, #62, .T. ) ;
#57 = DIRECTION ( 'NONE',  ( 1.000000000000000000, 0.0000000000000000000, 0.0000000000000000000 ) ) ;
#58 = DIRECTION ( 'NONE',  ( 0.0000000000000000000, 0.0000000000000000000, 1.000000000000000000 ) ) ;
#59 = PERSON_AND_ORGANIZATION_ROLE ( 'creator' ) ;
#60 = AXIS2_PLACEMENT_3D ( 'NONE', #18, #43, #69 ) ;
#61 = APPROVAL_ROLE ( '' ) ;
#62 = EDGE_CURVE ( 'NONE', #155, #126, #151, .T. ) ;
#63 = ORIENTED_EDGE ( 'NONE', *, *, #98, .T. ) ;
#64 = DIRECTION ( 'NONE',  ( -1.000000000000000000, 0.0000000000000000000, 0.0000000000000000000 ) ) ;
#65 = CC_DESIGN_PERSON_AND_ORGANIZATION_ASSIGNMENT ( #28, #93, ( #109 ) ) ;
#66 = COORDINATED_UNIVERSAL_TIME_OFFSET ( 5, 0, .BEHIND. ) ;
#67 = APPROVAL_ROLE ( '' ) ;
#68 = MECHANICAL_CONTEXT ( 'NONE', #124, 'mechanical' ) ;
#69 = DIRECTION ( 'NONE',  ( 1.000000000000000000, 0.0000000000000000000, 0.0000000000000000000 ) ) ;
#70 = EDGE_LOOP ( 'NONE', ( #117, #34 ) ) ;
#71 = DATE_AND_TIME ( #107, #75 ) ;
#72 = LOCAL_TIME ( 10, 10, 5.000000000000000000, #76 ) ;
#73 = CC_DESIGN_DATE_AND_TIME_ASSIGNMENT ( #40, #175, ( #54 ) ) ;
#74 = EDGE_CURVE ( 'NONE', #11, #129, #113, .T. ) ;
#75 = LOCAL_TIME ( 10, 10, 5.000000000000000000, #91 ) ;
#76 = COORDINATED_UNIVERSAL_TIME_OFFSET ( 5, 0, .BEHIND. ) ;
#77 = ADVANCED_FACE ( 'NONE', ( #44 ), #133, .F. ) ;
#78 = DIRECTION ( 'NONE',  ( -1.000000000000000000, 0.0000000000000000000, 0.0000000000000000000 ) ) ;
#79 = APPROVAL_PERSON_ORGANIZATION ( #118, #90, #61 ) ;
#80 = DIRECTION ( 'NONE',  ( -0.0000000000000000000, -0.0000000000000000000, -1.000000000000000000 ) ) ;
#81 = CARTESIAN_POINT ( 'NONE',  ( 0.0000000000000000000, 0.0000000000000000000, 0.2000000000000000100 ) ) ;
#82 = VECTOR ( 'NONE', #80, 1000.000000000000000 ) ;
#83 = DIRECTION ( 'NONE',  ( 0.0000000000000000000, 0.0000000000000000000, 1.000000000000000000 ) ) ;
#84 = APPROVAL_STATUS ( 'not_yet_approved' ) ;
#85 = CARTESIAN_POINT ( 'NONE',  ( -12.50000000000000000, 0.0000000000000000000, 0.2000000000000000100 ) ) ;
#86 = ORIENTED_EDGE ( 'NONE', *, *, #13, .T. ) ;
#87 = CC_DESIGN_APPROVAL ( #23, ( #54 ) ) ;
#88 = CARTESIAN_POINT ( 'NONE',  ( -12.50000000000000000, 0.0000000000000000000, 0.2000000000000000100 ) ) ;
#89 = ORIENTED_EDGE ( 'NONE', *, *, #62, .F. ) ;
#90 = APPROVAL ( #84, 'UNSPECIFIED' ) ;
#91 = COORDINATED_UNIVERSAL_TIME_OFFSET ( 5, 0, .BEHIND. ) ;
#92 = DIRECTION ( 'NONE',  ( -0.0000000000000000000, -0.0000000000000000000, -1.000000000000000000 ) ) ;
#93 = PERSON_AND_ORGANIZATION_ROLE ( 'creator' ) ;
#94 = APPROVAL_STATUS ( 'not_yet_approved' ) ;
#95 = APPLICATION_PROTOCOL_DEFINITION ( 'international standard', 'config_control_design', 1994, #108 ) ;
#96 = EDGE_LOOP ( 'NONE', ( #56, #63 ) ) ;
#97 = PERSON_AND_ORGANIZATION ( #105, #163 ) ;
#98 = EDGE_CURVE ( 'NONE', #126, #155, #144, .T. ) ;
#99 = AXIS2_PLACEMENT_3D ( 'NONE', #81, #102, #52 ) ;
#100 = APPROVAL_PERSON_ORGANIZATION ( #53, #48, #165 ) ;
#101 = VECTOR ( 'NONE', #166, 1000.000000000000000 ) ;
#102 = DIRECTION ( 'NONE',  ( 0.0000000000000000000, 0.0000000000000000000, 1.000000000000000000 ) ) ;
#103 = CARTESIAN_POINT ( 'NONE',  ( 12.50000000000000000, 1.530808498934191500E-015, 0.2000000000000000100 ) ) ;
#104 = SECURITY_CLASSIFICATION_LEVEL ( 'unclassified' ) ;
#105 = PERSON ( 'UNSPECIFIED', 'UNSPECIFIED', 'UNSPECIFIED', ('UNSPECIFIED'), ('UNSPECIFIED'), ('UNSPECIFIED') ) ;
#106 = COORDINATED_UNIVERSAL_TIME_OFFSET ( 5, 0, .BEHIND. ) ;
#107 = CALENDAR_DATE ( 2017, 1, 2 ) ;
#108 = APPLICATION_CONTEXT ( 'configuration controlled 3d designs of mechanical parts and assemblies' ) ;
#109 = PRODUCT_DEFINITION_FORMATION_WITH_SPECIFIED_SOURCE ( 'ANY', '', #45, .NOT_KNOWN. ) ;
#110 = AXIS2_PLACEMENT_3D ( 'NONE', #171, #32, #164 ) ;
#111 = ADVANCED_BREP_SHAPE_REPRESENTATION ( 'Web Model 83103', ( #140, #37 ), #139 ) ;
#112 = CALENDAR_DATE ( 2017, 1, 2 ) ;
#113 = CIRCLE ( 'NONE', #172, 12.50000000000000000 ) ;
#114 = PERSON_AND_ORGANIZATION ( #105, #163 ) ;
#115 = DESIGN_CONTEXT ( 'detailed design', #108, 'design' ) ;
#116 = FACE_OUTER_BOUND ( 'NONE', #96, .T. ) ;
#117 = ORIENTED_EDGE ( 'NONE', *, *, #74, .F. ) ;
#118 = PERSON_AND_ORGANIZATION ( #105, #163 ) ;
#119 = PLANE ( 'NONE',  #147 ) ;
#120 = CALENDAR_DATE ( 2017, 1, 2 ) ;
#121 =( NAMED_UNIT ( * ) PLANE_ANGLE_UNIT ( ) SI_UNIT ( $, .RADIAN. ) );
#122 = PRODUCT_DEFINITION_SHAPE ( 'NONE', 'NONE',  #6 ) ;
#123 = APPROVAL_STATUS ( 'not_yet_approved' ) ;
#124 = APPLICATION_CONTEXT ( 'configuration controlled 3d designs of mechanical parts and assemblies' ) ;
#125 = CC_DESIGN_PERSON_AND_ORGANIZATION_ASSIGNMENT ( #142, #138, ( #45 ) ) ;
#126 = VERTEX_POINT ( 'NONE', #137 ) ;
#127 = DATE_TIME_ROLE ( 'creation_date' ) ;
#128 = APPROVAL_DATE_TIME ( #131, #23 ) ;
#129 = VERTEX_POINT ( 'NONE', #15 ) ;
#130 = EDGE_CURVE ( 'NONE', #155, #11, #26, .T. ) ;
#131 = DATE_AND_TIME ( #24, #168 ) ;
#132 = ORIENTED_EDGE ( 'NONE', *, *, #130, .F. ) ;
#133 = PLANE ( 'NONE',  #135 ) ;
#134 = DIRECTION ( 'NONE',  ( 0.0000000000000000000, 0.0000000000000000000, 1.000000000000000000 ) ) ;
#135 = AXIS2_PLACEMENT_3D ( 'NONE', #145, #20, #174 ) ;
#136 =( NAMED_UNIT ( * ) SI_UNIT ( $, .STERADIAN. ) SOLID_ANGLE_UNIT ( ) );
#137 = CARTESIAN_POINT ( 'NONE',  ( 12.50000000000000000, 1.530808498934191500E-015, 0.2000000000000000100 ) ) ;
#138 = PERSON_AND_ORGANIZATION_ROLE ( 'design_owner' ) ;
#139 =( GEOMETRIC_REPRESENTATION_CONTEXT ( 3 ) GLOBAL_UNCERTAINTY_ASSIGNED_CONTEXT ( ( #161 ) ) GLOBAL_UNIT_ASSIGNED_CONTEXT ( ( #1, #121, #136 ) ) REPRESENTATION_CONTEXT ( 'NONE', 'WORKASPACE' ) );
#140 = MANIFOLD_SOLID_BREP ( 'Extrude1', #160 ) ;
#141 = CC_DESIGN_APPROVAL ( #48, ( #6 ) ) ;
#142 = PERSON_AND_ORGANIZATION ( #105, #163 ) ;
#143 = PRODUCT_RELATED_PRODUCT_CATEGORY ( 'detail', '', ( #45 ) ) ;
#144 = CIRCLE ( 'NONE', #60, 12.50000000000000000 ) ;
#145 = CARTESIAN_POINT ( 'NONE',  ( 0.0000000000000000000, 0.0000000000000000000, 0.0000000000000000000 ) ) ;
#146 = AXIS2_PLACEMENT_3D ( 'NONE', #148, #92, #64 ) ;
#147 = AXIS2_PLACEMENT_3D ( 'NONE', #55, #134, #149 ) ;
#148 = CARTESIAN_POINT ( 'NONE',  ( 0.0000000000000000000, 0.0000000000000000000, 0.2000000000000000100 ) ) ;
#149 = DIRECTION ( 'NONE',  ( 1.000000000000000000, 0.0000000000000000000, -0.0000000000000000000 ) ) ;
#150 = PERSON_AND_ORGANIZATION ( #105, #163 ) ;
#151 = CIRCLE ( 'NONE', #99, 12.50000000000000000 ) ;
#152 = APPLICATION_PROTOCOL_DEFINITION ( 'international standard', 'config_control_design', 1994, #124 ) ;
#153 = CARTESIAN_POINT ( 'NONE',  ( 0.0000000000000000000, 0.0000000000000000000, 0.0000000000000000000 ) ) ;
#154 = CC_DESIGN_DATE_AND_TIME_ASSIGNMENT ( #159, #127, ( #6 ) ) ;
#155 = VERTEX_POINT ( 'NONE', #88 ) ;
#156 = CC_DESIGN_SECURITY_CLASSIFICATION ( #54, ( #109 ) ) ;
#157 = COORDINATED_UNIVERSAL_TIME_OFFSET ( 5, 0, .BEHIND. ) ;
#158 = FACE_OUTER_BOUND ( 'NONE', #39, .T. ) ;
#159 = DATE_AND_TIME ( #22, #72 ) ;
#160 = CLOSED_SHELL ( 'NONE', ( #14, #27, #31, #77 ) ) ;
#161 = UNCERTAINTY_MEASURE_WITH_UNIT (LENGTH_MEASURE( 1.000000000000000100E-005 ), #1, 'distance_accuracy_value', 'NONE');
#162 = CARTESIAN_POINT ( 'NONE',  ( -12.50000000000000000, 0.0000000000000000000, 0.0000000000000000000 ) ) ;
#163 = ORGANIZATION ( 'UNSPECIFIED', 'UNSPECIFIED', '' ) ;
#164 = DIRECTION ( 'NONE',  ( 1.000000000000000000, 0.0000000000000000000, 0.0000000000000000000 ) ) ;
#165 = APPROVAL_ROLE ( '' ) ;
#166 = DIRECTION ( 'NONE',  ( -0.0000000000000000000, -0.0000000000000000000, -1.000000000000000000 ) ) ;
#167 = PERSON_AND_ORGANIZATION_ROLE ( 'classification_officer' ) ;
#168 = LOCAL_TIME ( 10, 10, 5.000000000000000000, #106 ) ;
#169 = CC_DESIGN_PERSON_AND_ORGANIZATION_ASSIGNMENT ( #114, #59, ( #6 ) ) ;
#170 = ORIENTED_EDGE ( 'NONE', *, *, #98, .F. ) ;
#171 = CARTESIAN_POINT ( 'NONE',  ( 0.0000000000000000000, 0.0000000000000000000, 0.0000000000000000000 ) ) ;
#172 = AXIS2_PLACEMENT_3D ( 'NONE', #33, #83, #21 ) ;
#173 = CARTESIAN_POINT ( 'NONE',  ( 0.0000000000000000000, 0.0000000000000000000, 0.2000000000000000100 ) ) ;
#174 = DIRECTION ( 'NONE',  ( 1.000000000000000000, 0.0000000000000000000, -0.0000000000000000000 ) ) ;
#175 = DATE_TIME_ROLE ( 'classification_date' ) ;
ENDSEC;
END-ISO-10303-21;
