ISO-10303-21;
HEADER;
FILE_DESCRIPTION (( 'STEP AP203' ),
    '1' );
FILE_NAME ('Web Model 48459MX_41043.step',
    '2017-10-30T13:21:42',
    ( '' ),
    ( '' ),
    'SwSTEP 2.0',
    'SolidWorks 2016',
    '' );
FILE_SCHEMA (( 'CONFIG_CONTROL_DESIGN' ));
ENDSEC;

DATA;
#1 = DESIGN_CONTEXT ( 'detailed design', #72, 'design' ) ;
#2 = APPROVAL_STATUS ( 'not_yet_approved' ) ;
#3 = PERSON_AND_ORGANIZATION ( #13, #75 ) ;
#4 = AXIS2_PLACEMENT_3D ( 'NONE', #165, #163, #8 ) ;
#5 = LINE ( 'NONE', #122, #187 ) ;
#6 = ORIENTED_EDGE ( 'NONE', *, *, #111, .T. ) ;
#7 = ADVANCED_FACE ( 'NONE', ( #10 ), #46, .F. ) ;
#8 = DIRECTION ( 'NONE',  ( 1.000000000000000000, 0.0000000000000000000, -0.0000000000000000000 ) ) ;
#9 = DATE_AND_TIME ( #224, #212 ) ;
#10 = FACE_OUTER_BOUND ( 'NONE', #43, .T. ) ;
#11 = DIRECTION ( 'NONE',  ( -0.0000000000000000000, -0.0000000000000000000, -1.000000000000000000 ) ) ;
#12 = CARTESIAN_POINT ( 'NONE',  ( 24.99999999999999600, 25.00000000000000400, -4.750000000000000000 ) ) ;
#13 = PERSON ( 'UNSPECIFIED', 'UNSPECIFIED', 'UNSPECIFIED', ('UNSPECIFIED'), ('UNSPECIFIED'), ('UNSPECIFIED') ) ;
#14 = VERTEX_POINT ( 'NONE', #229 ) ;
#15 = CARTESIAN_POINT ( 'NONE',  ( 24.99999999999999600, -24.99999999999999600, -4.750000000000000000 ) ) ;
#16 = DIRECTION ( 'NONE',  ( 1.000000000000000000, 1.387778780781445700E-016, -0.0000000000000000000 ) ) ;
#17 = CC_DESIGN_DATE_AND_TIME_ASSIGNMENT ( #166, #57, ( #222 ) ) ;
#18 = CALENDAR_DATE ( 2017, 30, 10 ) ;
#19 = LINE ( 'NONE', #213, #139 ) ;
#20 = LINE ( 'NONE', #192, #110 ) ;
#21 = APPLICATION_PROTOCOL_DEFINITION ( 'international standard', 'config_control_design', 1994, #217 ) ;
#22 =( NAMED_UNIT ( * ) PLANE_ANGLE_UNIT ( ) SI_UNIT ( $, .RADIAN. ) );
#23 = PERSON_AND_ORGANIZATION ( #13, #75 ) ;
#24 = LINE ( 'NONE', #70, #64 ) ;
#25 = ORIENTED_EDGE ( 'NONE', *, *, #123, .T. ) ;
#26 = MANIFOLD_SOLID_BREP ( 'Boss-Extrude1', #145 ) ;
#27 = PERSON_AND_ORGANIZATION ( #13, #75 ) ;
#28 = ADVANCED_FACE ( 'NONE', ( #154 ), #184, .F. ) ;
#29 = ORIENTED_EDGE ( 'NONE', *, *, #115, .F. ) ;
#30 = PLANE ( 'NONE',  #112 ) ;
#31 = CARTESIAN_POINT ( 'NONE',  ( -25.00000000000000400, -25.00000000000000400, 4.750000000000000000 ) ) ;
#32 = LINE ( 'NONE', #155, #35 ) ;
#33 = CARTESIAN_POINT ( 'NONE',  ( -25.00000000000000400, 24.99999999999999600, -4.750000000000000000 ) ) ;
#34 = DIRECTION ( 'NONE',  ( 1.000000000000000000, 0.0000000000000000000, 0.0000000000000000000 ) ) ;
#35 = VECTOR ( 'NONE', #100, 1000.000000000000000 ) ;
#36 = ORIENTED_EDGE ( 'NONE', *, *, #38, .F. ) ;
#37 = DIRECTION ( 'NONE',  ( -0.0000000000000000000, -1.000000000000000000, -0.0000000000000000000 ) ) ;
#38 = EDGE_CURVE ( 'NONE', #106, #142, #48, .T. ) ;
#39 = PERSON_AND_ORGANIZATION ( #13, #75 ) ;
#40 = EDGE_LOOP ( 'NONE', ( #129, #6, #94, #65 ) ) ;
#41 = APPROVAL_DATE_TIME ( #96, #117 ) ;
#42 = LINE ( 'NONE', #189, #150 ) ;
#43 = EDGE_LOOP ( 'NONE', ( #140, #120, #147, #116 ) ) ;
#44 = CC_DESIGN_PERSON_AND_ORGANIZATION_ASSIGNMENT ( #90, #141, ( #59 ) ) ;
#45 = COORDINATED_UNIVERSAL_TIME_OFFSET ( 5, 0, .BEHIND. ) ;
#46 = PLANE ( 'NONE',  #4 ) ;
#47 = CALENDAR_DATE ( 2017, 30, 10 ) ;
#48 = LINE ( 'NONE', #95, #114 ) ;
#49 = CC_DESIGN_PERSON_AND_ORGANIZATION_ASSIGNMENT ( #223, #128, ( #182 ) ) ;
#50 = ADVANCED_FACE ( 'NONE', ( #200 ), #88, .F. ) ;
#51 = EDGE_CURVE ( 'NONE', #179, #201, #54, .T. ) ;
#52 = DIRECTION ( 'NONE',  ( -0.0000000000000000000, -0.0000000000000000000, -1.000000000000000000 ) ) ;
#53 = LOCAL_TIME ( 9, 21, 42.00000000000000000, #135 ) ;
#54 = LINE ( 'NONE', #230, #74 ) ;
#55 = EDGE_CURVE ( 'NONE', #142, #201, #20, .T. ) ;
#56 = ORIENTED_EDGE ( 'NONE', *, *, #197, .T. ) ;
#57 = DATE_TIME_ROLE ( 'classification_date' ) ;
#58 = ORIENTED_EDGE ( 'NONE', *, *, #51, .T. ) ;
#59 = PRODUCT ( 'Web Model 48459MX_41043', 'Web Model 48459MX_41043', '', ( #127 ) ) ;
#60 =( GEOMETRIC_REPRESENTATION_CONTEXT ( 3 ) GLOBAL_UNCERTAINTY_ASSIGNED_CONTEXT ( ( #146 ) ) GLOBAL_UNIT_ASSIGNED_CONTEXT ( ( #131, #22, #130 ) ) REPRESENTATION_CONTEXT ( 'NONE', 'WORKASPACE' ) );
#61 = APPROVAL_DATE_TIME ( #186, #178 ) ;
#62 = LOCAL_TIME ( 9, 21, 42.00000000000000000, #66 ) ;
#63 = VERTEX_POINT ( 'NONE', #234 ) ;
#64 = VECTOR ( 'NONE', #211, 1000.000000000000000 ) ;
#65 = ORIENTED_EDGE ( 'NONE', *, *, #99, .T. ) ;
#66 = COORDINATED_UNIVERSAL_TIME_OFFSET ( 5, 0, .BEHIND. ) ;
#67 = CARTESIAN_POINT ( 'NONE',  ( 24.99999999999999600, 25.00000000000000400, 4.750000000000000000 ) ) ;
#68 = LINE ( 'NONE', #173, #196 ) ;
#69 = DIRECTION ( 'NONE',  ( 0.0000000000000000000, -0.0000000000000000000, 1.000000000000000000 ) ) ;
#70 = CARTESIAN_POINT ( 'NONE',  ( -25.00000000000000400, -25.00000000000000400, 4.750000000000000000 ) ) ;
#71 = DATE_AND_TIME ( #118, #161 ) ;
#72 = APPLICATION_CONTEXT ( 'configuration controlled 3d designs of mechanical parts and assemblies' ) ;
#73 = CARTESIAN_POINT ( 'NONE',  ( -25.00000000000000400, -25.00000000000000400, 4.750000000000000000 ) ) ;
#74 = VECTOR ( 'NONE', #52, 1000.000000000000000 ) ;
#75 = ORGANIZATION ( 'UNSPECIFIED', 'UNSPECIFIED', '' ) ;
#76 = COORDINATED_UNIVERSAL_TIME_OFFSET ( 5, 0, .BEHIND. ) ;
#77 = PRODUCT_DEFINITION ( 'UNKNOWN', '', #182, #1 ) ;
#78 = LINE ( 'NONE', #103, #221 ) ;
#79 = DIRECTION ( 'NONE',  ( 0.0000000000000000000, 0.0000000000000000000, 1.000000000000000000 ) ) ;
#80 = APPROVAL_PERSON_ORGANIZATION ( #3, #178, #157 ) ;
#81 = ORIENTED_EDGE ( 'NONE', *, *, #214, .T. ) ;
#82 = DIRECTION ( 'NONE',  ( 1.000000000000000000, 1.387778780781445700E-016, 0.0000000000000000000 ) ) ;
#83 = CARTESIAN_POINT ( 'NONE',  ( 24.99999999999999600, -24.99999999999999600, 4.750000000000000000 ) ) ;
#84 = EDGE_CURVE ( 'NONE', #228, #63, #32, .T. ) ;
#85 = DIRECTION ( 'NONE',  ( 0.0000000000000000000, 1.000000000000000000, 0.0000000000000000000 ) ) ;
#86 = EDGE_LOOP ( 'NONE', ( #25, #36, #102, #226 ) ) ;
#87 = DIRECTION ( 'NONE',  ( -1.000000000000000000, -1.387778780781445700E-016, 0.0000000000000000000 ) ) ;
#88 = PLANE ( 'NONE',  #148 ) ;
#89 = APPROVAL_STATUS ( 'not_yet_approved' ) ;
#90 = PERSON_AND_ORGANIZATION ( #13, #75 ) ;
#91 = EDGE_LOOP ( 'NONE', ( #191, #152, #208, #218 ) ) ;
#92 = CARTESIAN_POINT ( 'NONE',  ( 0.0000000000000000000, 0.0000000000000000000, 0.0000000000000000000 ) ) ;
#93 = AXIS2_PLACEMENT_3D ( 'NONE', #92, #219, #34 ) ;
#94 = ORIENTED_EDGE ( 'NONE', *, *, #227, .T. ) ;
#95 = CARTESIAN_POINT ( 'NONE',  ( 24.99999999999999600, 25.00000000000000400, 4.750000000000000000 ) ) ;
#96 = DATE_AND_TIME ( #18, #62 ) ;
#97 = COORDINATED_UNIVERSAL_TIME_OFFSET ( 5, 0, .BEHIND. ) ;
#98 = DIRECTION ( 'NONE',  ( -1.000000000000000000, 0.0000000000000000000, 0.0000000000000000000 ) ) ;
#99 = EDGE_CURVE ( 'NONE', #106, #179, #19, .T. ) ;
#100 = DIRECTION ( 'NONE',  ( -0.0000000000000000000, -0.0000000000000000000, -1.000000000000000000 ) ) ;
#101 = CARTESIAN_POINT ( 'NONE',  ( 24.99999999999999600, -24.99999999999999600, -4.750000000000000000 ) ) ;
#102 = ORIENTED_EDGE ( 'NONE', *, *, #227, .F. ) ;
#103 = CARTESIAN_POINT ( 'NONE',  ( 24.99999999999999600, -24.99999999999999600, 4.750000000000000000 ) ) ;
#104 = DIRECTION ( 'NONE',  ( 1.387778780781445700E-016, -1.000000000000000000, 0.0000000000000000000 ) ) ;
#105 = APPROVAL_ROLE ( '' ) ;
#106 = VERTEX_POINT ( 'NONE', #67 ) ;
#107 = DATE_TIME_ROLE ( 'creation_date' ) ;
#108 = SECURITY_CLASSIFICATION_LEVEL ( 'unclassified' ) ;
#109 = APPLICATION_PROTOCOL_DEFINITION ( 'international standard', 'config_control_design', 1994, #72 ) ;
#110 = VECTOR ( 'NONE', #210, 1000.000000000000000 ) ;
#111 = EDGE_CURVE ( 'NONE', #228, #177, #42, .T. ) ;
#112 = AXIS2_PLACEMENT_3D ( 'NONE', #31, #126, #207 ) ;
#113 = APPROVAL_PERSON_ORGANIZATION ( #23, #117, #174 ) ;
#114 = VECTOR ( 'NONE', #11, 1000.000000000000000 ) ;
#115 = EDGE_CURVE ( 'NONE', #177, #14, #78, .T. ) ;
#116 = ORIENTED_EDGE ( 'NONE', *, *, #197, .F. ) ;
#117 = APPROVAL ( #2, 'UNSPECIFIED' ) ;
#118 = CALENDAR_DATE ( 2017, 30, 10 ) ;
#119 = FACE_OUTER_BOUND ( 'NONE', #40, .T. ) ;
#120 = ORIENTED_EDGE ( 'NONE', *, *, #55, .F. ) ;
#121 = CARTESIAN_POINT ( 'NONE',  ( 24.99999999999999600, -24.99999999999999600, 4.750000000000000000 ) ) ;
#122 = CARTESIAN_POINT ( 'NONE',  ( 24.99999999999999600, -24.99999999999999600, 4.750000000000000000 ) ) ;
#123 = EDGE_CURVE ( 'NONE', #14, #142, #125, .T. ) ;
#124 = DIRECTION ( 'NONE',  ( 1.000000000000000000, 1.387778780781445700E-016, -0.0000000000000000000 ) ) ;
#125 = LINE ( 'NONE', #15, #199 ) ;
#126 = DIRECTION ( 'NONE',  ( 1.000000000000000000, 0.0000000000000000000, 0.0000000000000000000 ) ) ;
#127 = MECHANICAL_CONTEXT ( 'NONE', #217, 'mechanical' ) ;
#128 = PERSON_AND_ORGANIZATION_ROLE ( 'creator' ) ;
#129 = ORIENTED_EDGE ( 'NONE', *, *, #209, .T. ) ;
#130 =( NAMED_UNIT ( * ) SI_UNIT ( $, .STERADIAN. ) SOLID_ANGLE_UNIT ( ) );
#131 =( LENGTH_UNIT ( ) NAMED_UNIT ( * ) SI_UNIT ( .MILLI., .METRE. ) );
#132 = CC_DESIGN_APPROVAL ( #117, ( #182 ) ) ;
#133 = ORIENTED_EDGE ( 'NONE', *, *, #84, .T. ) ;
#134 = AXIS2_PLACEMENT_3D ( 'NONE', #83, #193, #87 ) ;
#135 = COORDINATED_UNIVERSAL_TIME_OFFSET ( 5, 0, .BEHIND. ) ;
#136 = SHAPE_DEFINITION_REPRESENTATION ( #216, #159 ) ;
#137 = EDGE_LOOP ( 'NONE', ( #81, #236, #183, #58 ) ) ;
#138 = PLANE ( 'NONE',  #195 ) ;
#139 = VECTOR ( 'NONE', #233, 1000.000000000000000 ) ;
#140 = ORIENTED_EDGE ( 'NONE', *, *, #214, .F. ) ;
#141 = PERSON_AND_ORGANIZATION_ROLE ( 'design_owner' ) ;
#142 = VERTEX_POINT ( 'NONE', #12 ) ;
#143 = AXIS2_PLACEMENT_3D ( 'NONE', #188, #98, #79 ) ;
#144 = APPROVAL_DATE_TIME ( #9, #180 ) ;
#145 = CLOSED_SHELL ( 'NONE', ( #164, #202, #28, #50, #185, #7 ) ) ;
#146 = UNCERTAINTY_MEASURE_WITH_UNIT (LENGTH_MEASURE( 1.000000000000000100E-005 ), #131, 'distance_accuracy_value', 'NONE');
#147 = ORIENTED_EDGE ( 'NONE', *, *, #123, .F. ) ;
#148 = AXIS2_PLACEMENT_3D ( 'NONE', #172, #104, #82 ) ;
#149 = EDGE_LOOP ( 'NONE', ( #56, #29, #169, #133 ) ) ;
#150 = VECTOR ( 'NONE', #16, 1000.000000000000000 ) ;
#151 = CARTESIAN_POINT ( 'NONE',  ( -25.00000000000000400, 24.99999999999999600, 4.750000000000000000 ) ) ;
#152 = ORIENTED_EDGE ( 'NONE', *, *, #51, .F. ) ;
#153 = DIRECTION ( 'NONE',  ( 0.0000000000000000000, 1.000000000000000000, 0.0000000000000000000 ) ) ;
#154 = FACE_OUTER_BOUND ( 'NONE', #86, .T. ) ;
#155 = CARTESIAN_POINT ( 'NONE',  ( -25.00000000000000400, -25.00000000000000400, 4.750000000000000000 ) ) ;
#156 = CC_DESIGN_APPROVAL ( #178, ( #222 ) ) ;
#157 = APPROVAL_ROLE ( '' ) ;
#158 = FACE_OUTER_BOUND ( 'NONE', #149, .T. ) ;
#159 = ADVANCED_BREP_SHAPE_REPRESENTATION ( 'Web Model 48459MX_41043', ( #26, #93 ), #60 ) ;
#160 = PERSON_AND_ORGANIZATION ( #13, #75 ) ;
#161 = LOCAL_TIME ( 9, 21, 42.00000000000000000, #76 ) ;
#162 = CC_DESIGN_PERSON_AND_ORGANIZATION_ASSIGNMENT ( #160, #235, ( #222 ) ) ;
#163 = DIRECTION ( 'NONE',  ( 0.0000000000000000000, -0.0000000000000000000, 1.000000000000000000 ) ) ;
#164 = ADVANCED_FACE ( 'NONE', ( #231 ), #30, .F. ) ;
#165 = CARTESIAN_POINT ( 'NONE',  ( 0.0000000000000000000, 0.0000000000000000000, -4.750000000000000000 ) ) ;
#166 = DATE_AND_TIME ( #47, #53 ) ;
#167 = CC_DESIGN_APPROVAL ( #180, ( #77 ) ) ;
#168 = PERSON_AND_ORGANIZATION ( #13, #75 ) ;
#169 = ORIENTED_EDGE ( 'NONE', *, *, #111, .F. ) ;
#170 = CARTESIAN_POINT ( 'NONE',  ( 0.0000000000000000000, 0.0000000000000000000, 4.750000000000000000 ) ) ;
#171 = DIRECTION ( 'NONE',  ( -0.0000000000000000000, -0.0000000000000000000, -1.000000000000000000 ) ) ;
#172 = CARTESIAN_POINT ( 'NONE',  ( 24.99999999999999600, 25.00000000000000400, 4.750000000000000000 ) ) ;
#173 = CARTESIAN_POINT ( 'NONE',  ( -25.00000000000000400, -25.00000000000000400, -4.750000000000000000 ) ) ;
#174 = APPROVAL_ROLE ( '' ) ;
#175 = PERSON_AND_ORGANIZATION_ROLE ( 'creator' ) ;
#176 = VECTOR ( 'NONE', #124, 1000.000000000000000 ) ;
#177 = VERTEX_POINT ( 'NONE', #121 ) ;
#178 = APPROVAL ( #89, 'UNSPECIFIED' ) ;
#179 = VERTEX_POINT ( 'NONE', #151 ) ;
#180 = APPROVAL ( #215, 'UNSPECIFIED' ) ;
#181 = LOCAL_TIME ( 9, 21, 42.00000000000000000, #45 ) ;
#182 = PRODUCT_DEFINITION_FORMATION_WITH_SPECIFIED_SOURCE ( 'ANY', '', #59, .NOT_KNOWN. ) ;
#183 = ORIENTED_EDGE ( 'NONE', *, *, #209, .F. ) ;
#184 = PLANE ( 'NONE',  #143 ) ;
#185 = ADVANCED_FACE ( 'NONE', ( #119 ), #138, .T. ) ;
#186 = DATE_AND_TIME ( #198, #181 ) ;
#187 = VECTOR ( 'NONE', #153, 1000.000000000000000 ) ;
#188 = CARTESIAN_POINT ( 'NONE',  ( 24.99999999999999600, -24.99999999999999600, 4.750000000000000000 ) ) ;
#189 = CARTESIAN_POINT ( 'NONE',  ( 24.99999999999999600, -24.99999999999999600, 4.750000000000000000 ) ) ;
#190 = DIRECTION ( 'NONE',  ( 1.000000000000000000, 0.0000000000000000000, -0.0000000000000000000 ) ) ;
#191 = ORIENTED_EDGE ( 'NONE', *, *, #55, .T. ) ;
#192 = CARTESIAN_POINT ( 'NONE',  ( 24.99999999999999600, 25.00000000000000400, -4.750000000000000000 ) ) ;
#193 = DIRECTION ( 'NONE',  ( -1.387778780781445700E-016, 1.000000000000000000, 0.0000000000000000000 ) ) ;
#194 = CC_DESIGN_PERSON_AND_ORGANIZATION_ASSIGNMENT ( #168, #175, ( #77 ) ) ;
#195 = AXIS2_PLACEMENT_3D ( 'NONE', #170, #69, #190 ) ;
#196 = VECTOR ( 'NONE', #37, 1000.000000000000000 ) ;
#197 = EDGE_CURVE ( 'NONE', #63, #14, #206, .T. ) ;
#198 = CALENDAR_DATE ( 2017, 30, 10 ) ;
#199 = VECTOR ( 'NONE', #85, 1000.000000000000000 ) ;
#200 = FACE_OUTER_BOUND ( 'NONE', #91, .T. ) ;
#201 = VERTEX_POINT ( 'NONE', #33 ) ;
#202 = ADVANCED_FACE ( 'NONE', ( #158 ), #232, .F. ) ;
#203 = APPROVAL_PERSON_ORGANIZATION ( #27, #180, #105 ) ;
#204 = CC_DESIGN_DATE_AND_TIME_ASSIGNMENT ( #71, #107, ( #77 ) ) ;
#205 = CC_DESIGN_PERSON_AND_ORGANIZATION_ASSIGNMENT ( #39, #220, ( #182 ) ) ;
#206 = LINE ( 'NONE', #101, #176 ) ;
#207 = DIRECTION ( 'NONE',  ( 0.0000000000000000000, 0.0000000000000000000, -1.000000000000000000 ) ) ;
#208 = ORIENTED_EDGE ( 'NONE', *, *, #99, .F. ) ;
#209 = EDGE_CURVE ( 'NONE', #179, #228, #24, .T. ) ;
#210 = DIRECTION ( 'NONE',  ( -1.000000000000000000, -1.387778780781445700E-016, 0.0000000000000000000 ) ) ;
#211 = DIRECTION ( 'NONE',  ( -0.0000000000000000000, -1.000000000000000000, -0.0000000000000000000 ) ) ;
#212 = LOCAL_TIME ( 9, 21, 42.00000000000000000, #97 ) ;
#213 = CARTESIAN_POINT ( 'NONE',  ( 24.99999999999999600, 25.00000000000000400, 4.750000000000000000 ) ) ;
#214 = EDGE_CURVE ( 'NONE', #201, #63, #68, .T. ) ;
#215 = APPROVAL_STATUS ( 'not_yet_approved' ) ;
#216 = PRODUCT_DEFINITION_SHAPE ( 'NONE', 'NONE',  #77 ) ;
#217 = APPLICATION_CONTEXT ( 'configuration controlled 3d designs of mechanical parts and assemblies' ) ;
#218 = ORIENTED_EDGE ( 'NONE', *, *, #38, .T. ) ;
#219 = DIRECTION ( 'NONE',  ( 0.0000000000000000000, 0.0000000000000000000, 1.000000000000000000 ) ) ;
#220 = PERSON_AND_ORGANIZATION_ROLE ( 'design_supplier' ) ;
#221 = VECTOR ( 'NONE', #171, 1000.000000000000000 ) ;
#222 = SECURITY_CLASSIFICATION ( '', '', #108 ) ;
#223 = PERSON_AND_ORGANIZATION ( #13, #75 ) ;
#224 = CALENDAR_DATE ( 2017, 30, 10 ) ;
#225 = CC_DESIGN_SECURITY_CLASSIFICATION ( #222, ( #182 ) ) ;
#226 = ORIENTED_EDGE ( 'NONE', *, *, #115, .T. ) ;
#227 = EDGE_CURVE ( 'NONE', #177, #106, #5, .T. ) ;
#228 = VERTEX_POINT ( 'NONE', #73 ) ;
#229 = CARTESIAN_POINT ( 'NONE',  ( 24.99999999999999600, -24.99999999999999600, -4.750000000000000000 ) ) ;
#230 = CARTESIAN_POINT ( 'NONE',  ( -25.00000000000000400, 24.99999999999999600, 4.750000000000000000 ) ) ;
#231 = FACE_OUTER_BOUND ( 'NONE', #137, .T. ) ;
#232 = PLANE ( 'NONE',  #134 ) ;
#233 = DIRECTION ( 'NONE',  ( -1.000000000000000000, -1.387778780781445700E-016, 0.0000000000000000000 ) ) ;
#234 = CARTESIAN_POINT ( 'NONE',  ( -25.00000000000000400, -25.00000000000000400, -4.750000000000000000 ) ) ;
#235 = PERSON_AND_ORGANIZATION_ROLE ( 'classification_officer' ) ;
#236 = ORIENTED_EDGE ( 'NONE', *, *, #84, .F. ) ;
#237 = PRODUCT_RELATED_PRODUCT_CATEGORY ( 'detail', '', ( #59 ) ) ;
ENDSEC;
END-ISO-10303-21;
