ISO-10303-21;
HEADER;
FILE_DESCRIPTION (( 'STEP AP203' ),
    '1' );
FILE_NAME ('Web Model 33033_33036.step',
    '2019-05-20T15:06:07',
    ( '' ),
    ( '' ),
    'SwSTEP 2.0',
    'SolidWorks 2018',
    '' );
FILE_SCHEMA (( 'CONFIG_CONTROL_DESIGN' ));
ENDSEC;

DATA;
#1 = DATE_AND_TIME ( #83, #129 ) ;
#2 = MECHANICAL_CONTEXT ( 'NONE', #82, 'mechanical' ) ;
#3 = DATE_TIME_ROLE ( 'classification_date' ) ;
#4 = DATE_TIME_ROLE ( 'creation_date' ) ;
#5 = ORIENTED_EDGE ( 'NONE', *, *, #100, .F. ) ;
#6 = DIRECTION ( 'NONE',  ( 1.000000000000000000, 0.0000000000000000000, 0.0000000000000000000 ) ) ;
#7 = COORDINATED_UNIVERSAL_TIME_OFFSET ( 5, 0, .BEHIND. ) ;
#8 = MANIFOLD_SOLID_BREP ( 'Revolve1', #27 ) ;
#9 = CIRCLE ( 'NONE', #134, 12.69999999999999929 ) ;
#10 = LOCAL_TIME ( 11, 6, 7.000000000000000000, #7 ) ;
#11 = DIRECTION ( 'NONE',  ( 1.000000000000000000, 0.0000000000000000000, 0.0000000000000000000 ) ) ;
#12 = DIRECTION ( 'NONE',  ( 0.0000000000000000000, -0.0000000000000000000, 1.000000000000000000 ) ) ;
#13 = LOCAL_TIME ( 11, 6, 7.000000000000000000, #101 ) ;
#14 = DIRECTION ( 'NONE',  ( -0.0000000000000000000, -0.0000000000000000000, 1.000000000000000000 ) ) ;
#15 = DIRECTION ( 'NONE',  ( -1.000000000000000000, 0.0000000000000000000, -0.0000000000000000000 ) ) ;
#16 = PERSON_AND_ORGANIZATION ( #142, #32 ) ;
#17 = CARTESIAN_POINT ( 'NONE',  ( 0.0000000000000000000, 0.0000000000000000000, 2.500000000000000000 ) ) ;
#18 = ORIENTED_EDGE ( 'NONE', *, *, #120, .F. ) ;
#19 = PRODUCT ( 'Web Model 33033_33036', 'Web Model 33033_33036', '', ( #2 ) ) ;
#20 = DESIGN_CONTEXT ( 'detailed design', #111, 'design' ) ;
#21 = CARTESIAN_POINT ( 'NONE',  ( -12.69999999999999929, 1.555301434917138433E-15, -2.499999999999999556 ) ) ;
#22 = DIRECTION ( 'NONE',  ( 1.000000000000000000, 0.0000000000000000000, 0.0000000000000000000 ) ) ;
#23 = AXIS2_PLACEMENT_3D ( 'NONE', #147, #12, #22 ) ;
#24 = EDGE_LOOP ( 'NONE', ( #112, #139, #174, #18 ) ) ;
#25 = APPROVAL ( #166, 'UNSPECIFIED' ) ;
#26 = CARTESIAN_POINT ( 'NONE',  ( 0.0000000000000000000, 0.0000000000000000000, -2.499999999999999556 ) ) ;
#27 = CLOSED_SHELL ( 'NONE', ( #76, #114, #169, #90 ) ) ;
#28 = UNCERTAINTY_MEASURE_WITH_UNIT (LENGTH_MEASURE( 1.000000000000000082E-05 ), #145, 'distance_accuracy_value', 'NONE');
#29 = LINE ( 'NONE', #133, #136 ) ;
#30 = DIRECTION ( 'NONE',  ( 0.0000000000000000000, 0.0000000000000000000, -1.000000000000000000 ) ) ;
#31 = PERSON_AND_ORGANIZATION_ROLE ( 'classification_officer' ) ;
#32 = ORGANIZATION ( 'UNSPECIFIED', 'UNSPECIFIED', '' ) ;
#33 = CARTESIAN_POINT ( 'NONE',  ( 12.69999999999999929, 0.0000000000000000000, -2.499999999999999556 ) ) ;
#34 = CIRCLE ( 'NONE', #150, 12.69999999999999929 ) ;
#35 = CARTESIAN_POINT ( 'NONE',  ( -12.69999999999999929, 1.555301434917138433E-15, 2.500000000000000000 ) ) ;
#36 = CARTESIAN_POINT ( 'NONE',  ( 0.0000000000000000000, 12.69999999999999929, 2.500000000000000444 ) ) ;
#37 = VERTEX_POINT ( 'NONE', #21 ) ;
#38 = PLANE ( 'NONE',  #23 ) ;
#39 = AXIS2_PLACEMENT_3D ( 'NONE', #17, #141, #50 ) ;
#40 = DIRECTION ( 'NONE',  ( -0.0000000000000000000, -0.0000000000000000000, 1.000000000000000000 ) ) ;
#41 = ORIENTED_EDGE ( 'NONE', *, *, #138, .T. ) ;
#42 = CC_DESIGN_PERSON_AND_ORGANIZATION_ASSIGNMENT ( #152, #46, ( #65 ) ) ;
#43 = CALENDAR_DATE ( 2019, 20, 5 ) ;
#44 = APPLICATION_PROTOCOL_DEFINITION ( 'international standard', 'config_control_design', 1994, #111 ) ;
#45 = APPROVAL ( #125, 'UNSPECIFIED' ) ;
#46 = PERSON_AND_ORGANIZATION_ROLE ( 'design_supplier' ) ;
#47 = LOCAL_TIME ( 11, 6, 7.000000000000000000, #122 ) ;
#48 = LOCAL_TIME ( 11, 6, 7.000000000000000000, #157 ) ;
#49 =( GEOMETRIC_REPRESENTATION_CONTEXT ( 3 ) GLOBAL_UNCERTAINTY_ASSIGNED_CONTEXT ( ( #28 ) ) GLOBAL_UNIT_ASSIGNED_CONTEXT ( ( #145, #55, #160 ) ) REPRESENTATION_CONTEXT ( 'NONE', 'WORKASPACE' ) );
#50 = DIRECTION ( 'NONE',  ( 1.000000000000000000, 0.0000000000000000000, 0.0000000000000000000 ) ) ;
#51 = AXIS2_PLACEMENT_3D ( 'NONE', #64, #93, #6 ) ;
#52 = PERSON_AND_ORGANIZATION ( #142, #32 ) ;
#53 = CARTESIAN_POINT ( 'NONE',  ( 0.0000000000000000000, 0.0000000000000000000, 2.500000000000001332 ) ) ;
#54 = CARTESIAN_POINT ( 'NONE',  ( 0.0000000000000000000, 0.0000000000000000000, 0.0000000000000000000 ) ) ;
#55 =( NAMED_UNIT ( * ) PLANE_ANGLE_UNIT ( ) SI_UNIT ( $, .RADIAN. ) );
#56 = DIRECTION ( 'NONE',  ( -0.0000000000000000000, -0.0000000000000000000, 1.000000000000000000 ) ) ;
#57 = LINE ( 'NONE', #159, #104 ) ;
#58 = CC_DESIGN_PERSON_AND_ORGANIZATION_ASSIGNMENT ( #149, #74, ( #65 ) ) ;
#59 = EDGE_LOOP ( 'NONE', ( #102, #143 ) ) ;
#60 = APPROVAL_PERSON_ORGANIZATION ( #52, #25, #61 ) ;
#61 = APPROVAL_ROLE ( '' ) ;
#62 = PERSON_AND_ORGANIZATION ( #142, #32 ) ;
#63 = EDGE_LOOP ( 'NONE', ( #41, #86, #89, #5 ) ) ;
#64 = CARTESIAN_POINT ( 'NONE',  ( 0.0000000000000000000, 0.0000000000000000000, 2.500000000000001332 ) ) ;
#65 = PRODUCT_DEFINITION_FORMATION_WITH_SPECIFIED_SOURCE ( 'ANY', '', #19, .NOT_KNOWN. ) ;
#66 = CARTESIAN_POINT ( 'NONE',  ( 0.0000000000000000000, 0.0000000000000000000, 2.500000000000000000 ) ) ;
#67 = CIRCLE ( 'NONE', #39, 12.69999999999999929 ) ;
#68 = CARTESIAN_POINT ( 'NONE',  ( 0.0000000000000000000, 0.0000000000000000000, -2.499999999999999556 ) ) ;
#69 = AXIS2_PLACEMENT_3D ( 'NONE', #66, #70, #11 ) ;
#70 = DIRECTION ( 'NONE',  ( -0.0000000000000000000, -0.0000000000000000000, 1.000000000000000000 ) ) ;
#71 = VERTEX_POINT ( 'NONE', #35 ) ;
#72 = SHAPE_DEFINITION_REPRESENTATION ( #132, #171 ) ;
#73 = CALENDAR_DATE ( 2019, 20, 5 ) ;
#74 = PERSON_AND_ORGANIZATION_ROLE ( 'creator' ) ;
#75 = EDGE_LOOP ( 'NONE', ( #124, #128 ) ) ;
#76 = ADVANCED_FACE ( 'NONE', ( #121 ), #168, .T. ) ;
#77 = DATE_AND_TIME ( #73, #10 ) ;
#78 = DIRECTION ( 'NONE',  ( -0.0000000000000000000, -0.0000000000000000000, 1.000000000000000000 ) ) ;
#79 = PLANE ( 'NONE',  #80 ) ;
#80 = AXIS2_PLACEMENT_3D ( 'NONE', #36, #30, #15 ) ;
#81 = APPROVAL_PERSON_ORGANIZATION ( #140, #165, #126 ) ;
#82 = APPLICATION_CONTEXT ( 'configuration controlled 3d designs of mechanical parts and assemblies' ) ;
#83 = CALENDAR_DATE ( 2019, 20, 5 ) ;
#84 = CC_DESIGN_DATE_AND_TIME_ASSIGNMENT ( #1, #3, ( #94 ) ) ;
#85 = EDGE_CURVE ( 'NONE', #154, #71, #67, .T. ) ;
#86 = ORIENTED_EDGE ( 'NONE', *, *, #123, .T. ) ;
#87 = APPROVAL_ROLE ( '' ) ;
#88 = APPROVAL_DATE_TIME ( #146, #165 ) ;
#89 = ORIENTED_EDGE ( 'NONE', *, *, #85, .F. ) ;
#90 = ADVANCED_FACE ( 'NONE', ( #156 ), #131, .T. ) ;
#91 = CC_DESIGN_PERSON_AND_ORGANIZATION_ASSIGNMENT ( #16, #98, ( #19 ) ) ;
#92 = CIRCLE ( 'NONE', #69, 12.69999999999999929 ) ;
#93 = DIRECTION ( 'NONE',  ( -0.0000000000000000000, -0.0000000000000000000, 1.000000000000000000 ) ) ;
#94 = SECURITY_CLASSIFICATION ( '', '', #163 ) ;
#95 = DIRECTION ( 'NONE',  ( 1.000000000000000000, 0.0000000000000000000, 0.0000000000000000000 ) ) ;
#96 = AXIS2_PLACEMENT_3D ( 'NONE', #53, #118, #155 ) ;
#97 = CC_DESIGN_PERSON_AND_ORGANIZATION_ASSIGNMENT ( #62, #167, ( #162 ) ) ;
#98 = PERSON_AND_ORGANIZATION_ROLE ( 'design_owner' ) ;
#99 = APPROVAL_STATUS ( 'not_yet_approved' ) ;
#100 = EDGE_CURVE ( 'NONE', #107, #154, #29, .T. ) ;
#101 = COORDINATED_UNIVERSAL_TIME_OFFSET ( 5, 0, .BEHIND. ) ;
#102 = ORIENTED_EDGE ( 'NONE', *, *, #85, .T. ) ;
#103 = DATE_AND_TIME ( #110, #48 ) ;
#104 = VECTOR ( 'NONE', #14, 1000.000000000000000 ) ;
#105 = CARTESIAN_POINT ( 'NONE',  ( 12.69999999999999929, 0.0000000000000000000, 2.500000000000000000 ) ) ;
#106 = DIRECTION ( 'NONE',  ( 1.000000000000000000, 0.0000000000000000000, 0.0000000000000000000 ) ) ;
#107 = VERTEX_POINT ( 'NONE', #33 ) ;
#108 = PERSON_AND_ORGANIZATION ( #142, #32 ) ;
#109 = DIRECTION ( 'NONE',  ( 1.000000000000000000, 0.0000000000000000000, 0.0000000000000000000 ) ) ;
#110 = CALENDAR_DATE ( 2019, 20, 5 ) ;
#111 = APPLICATION_CONTEXT ( 'configuration controlled 3d designs of mechanical parts and assemblies' ) ;
#112 = ORIENTED_EDGE ( 'NONE', *, *, #123, .F. ) ;
#113 = DATE_AND_TIME ( #119, #13 ) ;
#114 = ADVANCED_FACE ( 'NONE', ( #164 ), #79, .F. ) ;
#115 = CC_DESIGN_PERSON_AND_ORGANIZATION_ASSIGNMENT ( #108, #31, ( #94 ) ) ;
#116 = FACE_OUTER_BOUND ( 'NONE', #75, .T. ) ;
#117 = COORDINATED_UNIVERSAL_TIME_OFFSET ( 5, 0, .BEHIND. ) ;
#118 = DIRECTION ( 'NONE',  ( -0.0000000000000000000, -0.0000000000000000000, 1.000000000000000000 ) ) ;
#119 = CALENDAR_DATE ( 2019, 20, 5 ) ;
#120 = EDGE_CURVE ( 'NONE', #71, #154, #92, .T. ) ;
#121 = FACE_OUTER_BOUND ( 'NONE', #63, .T. ) ;
#122 = COORDINATED_UNIVERSAL_TIME_OFFSET ( 5, 0, .BEHIND. ) ;
#123 = EDGE_CURVE ( 'NONE', #37, #71, #57, .T. ) ;
#124 = ORIENTED_EDGE ( 'NONE', *, *, #138, .F. ) ;
#125 = APPROVAL_STATUS ( 'not_yet_approved' ) ;
#126 = APPROVAL_ROLE ( '' ) ;
#127 = EDGE_CURVE ( 'NONE', #37, #107, #9, .T. ) ;
#128 = ORIENTED_EDGE ( 'NONE', *, *, #127, .F. ) ;
#129 = LOCAL_TIME ( 11, 6, 7.000000000000000000, #117 ) ;
#130 = AXIS2_PLACEMENT_3D ( 'NONE', #54, #148, #109 ) ;
#131 = CYLINDRICAL_SURFACE ( 'NONE', #96, 12.69999999999999929 ) ;
#132 = PRODUCT_DEFINITION_SHAPE ( 'NONE', 'NONE',  #162 ) ;
#133 = CARTESIAN_POINT ( 'NONE',  ( 12.69999999999999929, 0.0000000000000000000, 2.500000000000001332 ) ) ;
#134 = AXIS2_PLACEMENT_3D ( 'NONE', #26, #40, #106 ) ;
#135 = CC_DESIGN_SECURITY_CLASSIFICATION ( #94, ( #65 ) ) ;
#136 = VECTOR ( 'NONE', #78, 1000.000000000000000 ) ;
#137 = APPLICATION_PROTOCOL_DEFINITION ( 'international standard', 'config_control_design', 1994, #82 ) ;
#138 = EDGE_CURVE ( 'NONE', #107, #37, #34, .T. ) ;
#139 = ORIENTED_EDGE ( 'NONE', *, *, #127, .T. ) ;
#140 = PERSON_AND_ORGANIZATION ( #142, #32 ) ;
#141 = DIRECTION ( 'NONE',  ( -0.0000000000000000000, -0.0000000000000000000, 1.000000000000000000 ) ) ;
#142 = PERSON ( 'UNSPECIFIED', 'UNSPECIFIED', 'UNSPECIFIED', ('UNSPECIFIED'), ('UNSPECIFIED'), ('UNSPECIFIED') ) ;
#143 = ORIENTED_EDGE ( 'NONE', *, *, #120, .T. ) ;
#144 = APPROVAL_DATE_TIME ( #103, #25 ) ;
#145 =( LENGTH_UNIT ( ) NAMED_UNIT ( * ) SI_UNIT ( .MILLI., .METRE. ) );
#146 = DATE_AND_TIME ( #43, #47 ) ;
#147 = CARTESIAN_POINT ( 'NONE',  ( 0.0000000000000000000, 12.69999999999999929, -2.500000000000000444 ) ) ;
#148 = DIRECTION ( 'NONE',  ( 0.0000000000000000000, 0.0000000000000000000, 1.000000000000000000 ) ) ;
#149 = PERSON_AND_ORGANIZATION ( #142, #32 ) ;
#150 = AXIS2_PLACEMENT_3D ( 'NONE', #68, #56, #95 ) ;
#151 = CC_DESIGN_APPROVAL ( #25, ( #65 ) ) ;
#152 = PERSON_AND_ORGANIZATION ( #142, #32 ) ;
#153 = APPROVAL_PERSON_ORGANIZATION ( #172, #45, #87 ) ;
#154 = VERTEX_POINT ( 'NONE', #105 ) ;
#155 = DIRECTION ( 'NONE',  ( 1.000000000000000000, 0.0000000000000000000, 0.0000000000000000000 ) ) ;
#156 = FACE_OUTER_BOUND ( 'NONE', #24, .T. ) ;
#157 = COORDINATED_UNIVERSAL_TIME_OFFSET ( 5, 0, .BEHIND. ) ;
#158 = PRODUCT_RELATED_PRODUCT_CATEGORY ( 'detail', '', ( #19 ) ) ;
#159 = CARTESIAN_POINT ( 'NONE',  ( -12.69999999999999929, 1.555301434917138433E-15, 2.500000000000001332 ) ) ;
#160 =( NAMED_UNIT ( * ) SI_UNIT ( $, .STERADIAN. ) SOLID_ANGLE_UNIT ( ) );
#161 = CC_DESIGN_APPROVAL ( #165, ( #94 ) ) ;
#162 = PRODUCT_DEFINITION ( 'UNKNOWN', '', #65, #20 ) ;
#163 = SECURITY_CLASSIFICATION_LEVEL ( 'unclassified' ) ;
#164 = FACE_OUTER_BOUND ( 'NONE', #59, .T. ) ;
#165 = APPROVAL ( #99, 'UNSPECIFIED' ) ;
#166 = APPROVAL_STATUS ( 'not_yet_approved' ) ;
#167 = PERSON_AND_ORGANIZATION_ROLE ( 'creator' ) ;
#168 = CYLINDRICAL_SURFACE ( 'NONE', #51, 12.69999999999999929 ) ;
#169 = ADVANCED_FACE ( 'NONE', ( #116 ), #38, .F. ) ;
#170 = APPROVAL_DATE_TIME ( #113, #45 ) ;
#171 = ADVANCED_BREP_SHAPE_REPRESENTATION ( 'Web Model 33033_33036', ( #8, #130 ), #49 ) ;
#172 = PERSON_AND_ORGANIZATION ( #142, #32 ) ;
#173 = CC_DESIGN_APPROVAL ( #45, ( #162 ) ) ;
#174 = ORIENTED_EDGE ( 'NONE', *, *, #100, .T. ) ;
#175 = CC_DESIGN_DATE_AND_TIME_ASSIGNMENT ( #77, #4, ( #162 ) ) ;
ENDSEC;
END-ISO-10303-21;
