ISO-10303-21;
HEADER;
FILE_DESCRIPTION (( 'STEP AP203' ),
    '1' );
FILE_NAME ('Web Model 34602_13346.step',
    '2020-11-04T13:32:21',
    ( '' ),
    ( '' ),
    'SwSTEP 2.0',
    'SolidWorks 2018',
    '' );
FILE_SCHEMA (( 'CONFIG_CONTROL_DESIGN' ));
ENDSEC;

DATA;
#1 = CARTESIAN_POINT ( 'NONE',  ( 25.00000000000000000, 3.061616997868383043E-15, -3.000000000000000000 ) ) ;
#2 = DIRECTION ( 'NONE',  ( 0.0000000000000000000, 0.0000000000000000000, 1.000000000000000000 ) ) ;
#3 = DIRECTION ( 'NONE',  ( -1.000000000000000000, 0.0000000000000000000, 0.0000000000000000000 ) ) ;
#4 = AXIS2_PLACEMENT_3D ( 'NONE', #37, #2, #6 ) ;
#5 = VECTOR ( 'NONE', #100, 1000.000000000000000 ) ;
#6 = DIRECTION ( 'NONE',  ( 1.000000000000000000, 0.0000000000000000000, 0.0000000000000000000 ) ) ;
#7 = CC_DESIGN_DATE_AND_TIME_ASSIGNMENT ( #41, #126, ( #81 ) ) ;
#8 = CC_DESIGN_PERSON_AND_ORGANIZATION_ASSIGNMENT ( #68, #136, ( #81 ) ) ;
#9 = CC_DESIGN_SECURITY_CLASSIFICATION ( #81, ( #29 ) ) ;
#10 = ORIENTED_EDGE ( 'NONE', *, *, #59, .T. ) ;
#11 = PERSON_AND_ORGANIZATION ( #132, #110 ) ;
#12 =( NAMED_UNIT ( * ) SI_UNIT ( $, .STERADIAN. ) SOLID_ANGLE_UNIT ( ) );
#13 = PRODUCT_DEFINITION ( 'UNKNOWN', '', #29, #159 ) ;
#14 = FACE_OUTER_BOUND ( 'NONE', #165, .T. ) ;
#15 = PERSON_AND_ORGANIZATION_ROLE ( 'design_supplier' ) ;
#16 = ORIENTED_EDGE ( 'NONE', *, *, #89, .F. ) ;
#17 = ORIENTED_EDGE ( 'NONE', *, *, #53, .F. ) ;
#18 = CARTESIAN_POINT ( 'NONE',  ( 25.00000000000000000, 3.061616997868383043E-15, 3.000000000000000000 ) ) ;
#19 = DIRECTION ( 'NONE',  ( 0.0000000000000000000, 0.0000000000000000000, 1.000000000000000000 ) ) ;
#20 = ORIENTED_EDGE ( 'NONE', *, *, #59, .F. ) ;
#21 = PERSON_AND_ORGANIZATION ( #132, #110 ) ;
#22 = CC_DESIGN_APPROVAL ( #82, ( #29 ) ) ;
#23 = CALENDAR_DATE ( 2020, 4, 11 ) ;
#24 = DATE_AND_TIME ( #62, #113 ) ;
#25 = DIRECTION ( 'NONE',  ( 1.000000000000000000, 0.0000000000000000000, -0.0000000000000000000 ) ) ;
#26 = DIRECTION ( 'NONE',  ( 1.000000000000000000, 0.0000000000000000000, 0.0000000000000000000 ) ) ;
#27 = AXIS2_PLACEMENT_3D ( 'NONE', #101, #42, #90 ) ;
#28 = COORDINATED_UNIVERSAL_TIME_OFFSET ( 5, 0, .BEHIND. ) ;
#29 = PRODUCT_DEFINITION_FORMATION_WITH_SPECIFIED_SOURCE ( 'ANY', '', #38, .NOT_KNOWN. ) ;
#30 = ORIENTED_EDGE ( 'NONE', *, *, #163, .T. ) ;
#31 = DIRECTION ( 'NONE',  ( 1.000000000000000000, 0.0000000000000000000, 0.0000000000000000000 ) ) ;
#32 = CIRCLE ( 'NONE', #76, 25.00000000000000000 ) ;
#33 = APPROVAL_DATE_TIME ( #107, #49 ) ;
#34 = CC_DESIGN_PERSON_AND_ORGANIZATION_ASSIGNMENT ( #122, #118, ( #38 ) ) ;
#35 = PERSON_AND_ORGANIZATION ( #132, #110 ) ;
#36 = APPLICATION_CONTEXT ( 'configuration controlled 3d designs of mechanical parts and assemblies' ) ;
#37 = CARTESIAN_POINT ( 'NONE',  ( 0.0000000000000000000, 0.0000000000000000000, 3.000000000000000000 ) ) ;
#38 = PRODUCT ( 'Web Model 34602_13346', 'Web Model 34602_13346', '', ( #134 ) ) ;
#39 = COORDINATED_UNIVERSAL_TIME_OFFSET ( 5, 0, .BEHIND. ) ;
#40 = LINE ( 'NONE', #149, #5 ) ;
#41 = DATE_AND_TIME ( #173, #128 ) ;
#42 = DIRECTION ( 'NONE',  ( 0.0000000000000000000, 0.0000000000000000000, 1.000000000000000000 ) ) ;
#43 = FACE_OUTER_BOUND ( 'NONE', #46, .T. ) ;
#44 = EDGE_LOOP ( 'NONE', ( #16, #10, #77, #161 ) ) ;
#45 = DIRECTION ( 'NONE',  ( 0.0000000000000000000, 0.0000000000000000000, 1.000000000000000000 ) ) ;
#46 = EDGE_LOOP ( 'NONE', ( #20, #98, #145, #124 ) ) ;
#47 = PERSON_AND_ORGANIZATION_ROLE ( 'creator' ) ;
#48 = DIRECTION ( 'NONE',  ( 0.0000000000000000000, 0.0000000000000000000, 1.000000000000000000 ) ) ;
#49 = APPROVAL ( #109, 'UNSPECIFIED' ) ;
#50 = PERSON_AND_ORGANIZATION_ROLE ( 'creator' ) ;
#51 = LINE ( 'NONE', #18, #143 ) ;
#52 = APPLICATION_PROTOCOL_DEFINITION ( 'international standard', 'config_control_design', 1994, #36 ) ;
#53 = EDGE_CURVE ( 'NONE', #85, #71, #32, .T. ) ;
#54 = COORDINATED_UNIVERSAL_TIME_OFFSET ( 5, 0, .BEHIND. ) ;
#55 = UNCERTAINTY_MEASURE_WITH_UNIT (LENGTH_MEASURE( 1.000000000000000082E-05 ), #119, 'distance_accuracy_value', 'NONE');
#56 = PRODUCT_RELATED_PRODUCT_CATEGORY ( 'detail', '', ( #38 ) ) ;
#57 = APPROVAL_PERSON_ORGANIZATION ( #69, #58, #72 ) ;
#58 = APPROVAL ( #65, 'UNSPECIFIED' ) ;
#59 = EDGE_CURVE ( 'NONE', #152, #85, #51, .T. ) ;
#60 = CIRCLE ( 'NONE', #4, 25.00000000000000000 ) ;
#61 = CC_DESIGN_DATE_AND_TIME_ASSIGNMENT ( #95, #169, ( #13 ) ) ;
#62 = CALENDAR_DATE ( 2020, 4, 11 ) ;
#63 = DIRECTION ( 'NONE',  ( 0.0000000000000000000, 0.0000000000000000000, 1.000000000000000000 ) ) ;
#64 = CARTESIAN_POINT ( 'NONE',  ( 0.0000000000000000000, 0.0000000000000000000, 3.000000000000000000 ) ) ;
#65 = APPROVAL_STATUS ( 'not_yet_approved' ) ;
#66 = CC_DESIGN_APPROVAL ( #58, ( #13 ) ) ;
#67 = CARTESIAN_POINT ( 'NONE',  ( 0.0000000000000000000, 0.0000000000000000000, -3.000000000000000000 ) ) ;
#68 = PERSON_AND_ORGANIZATION ( #132, #110 ) ;
#69 = PERSON_AND_ORGANIZATION ( #132, #110 ) ;
#70 = CYLINDRICAL_SURFACE ( 'NONE', #154, 25.00000000000000000 ) ;
#71 = VERTEX_POINT ( 'NONE', #121 ) ;
#72 = APPROVAL_ROLE ( '' ) ;
#73 = PERSON_AND_ORGANIZATION ( #132, #110 ) ;
#74 = APPROVAL_PERSON_ORGANIZATION ( #84, #82, #137 ) ;
#75 = COORDINATED_UNIVERSAL_TIME_OFFSET ( 5, 0, .BEHIND. ) ;
#76 = AXIS2_PLACEMENT_3D ( 'NONE', #129, #19, #31 ) ;
#77 = ORIENTED_EDGE ( 'NONE', *, *, #53, .T. ) ;
#78 = DIRECTION ( 'NONE',  ( 1.000000000000000000, 0.0000000000000000000, 0.0000000000000000000 ) ) ;
#79 = PRODUCT_DEFINITION_SHAPE ( 'NONE', 'NONE',  #13 ) ;
#80 = CC_DESIGN_PERSON_AND_ORGANIZATION_ASSIGNMENT ( #73, #47, ( #13 ) ) ;
#81 = SECURITY_CLASSIFICATION ( '', '', #153 ) ;
#82 = APPROVAL ( #127, 'UNSPECIFIED' ) ;
#83 = APPLICATION_CONTEXT ( 'configuration controlled 3d designs of mechanical parts and assemblies' ) ;
#84 = PERSON_AND_ORGANIZATION ( #132, #110 ) ;
#85 = VERTEX_POINT ( 'NONE', #1 ) ;
#86 = SHAPE_DEFINITION_REPRESENTATION ( #79, #106 ) ;
#87 = EDGE_CURVE ( 'NONE', #99, #71, #40, .T. ) ;
#88 = AXIS2_PLACEMENT_3D ( 'NONE', #67, #45, #26 ) ;
#89 = EDGE_CURVE ( 'NONE', #152, #99, #148, .T. ) ;
#90 = DIRECTION ( 'NONE',  ( 1.000000000000000000, 0.0000000000000000000, -0.0000000000000000000 ) ) ;
#91 = AXIS2_PLACEMENT_3D ( 'NONE', #108, #133, #116 ) ;
#92 = DIRECTION ( 'NONE',  ( -0.0000000000000000000, -0.0000000000000000000, -1.000000000000000000 ) ) ;
#93 = CIRCLE ( 'NONE', #88, 25.00000000000000000 ) ;
#94 = APPROVAL_ROLE ( '' ) ;
#95 = DATE_AND_TIME ( #131, #167 ) ;
#96 = CC_DESIGN_PERSON_AND_ORGANIZATION_ASSIGNMENT ( #21, #50, ( #29 ) ) ;
#97 = LOCAL_TIME ( 8, 32, 21.00000000000000000, #166 ) ;
#98 = ORIENTED_EDGE ( 'NONE', *, *, #163, .F. ) ;
#99 = VERTEX_POINT ( 'NONE', #102 ) ;
#100 = DIRECTION ( 'NONE',  ( -0.0000000000000000000, -0.0000000000000000000, -1.000000000000000000 ) ) ;
#101 = CARTESIAN_POINT ( 'NONE',  ( 0.0000000000000000000, 0.0000000000000000000, 3.000000000000000000 ) ) ;
#102 = CARTESIAN_POINT ( 'NONE',  ( -25.00000000000000000, 0.0000000000000000000, 3.000000000000000000 ) ) ;
#103 = CYLINDRICAL_SURFACE ( 'NONE', #125, 25.00000000000000000 ) ;
#104 = ORIENTED_EDGE ( 'NONE', *, *, #174, .F. ) ;
#105 = CARTESIAN_POINT ( 'NONE',  ( 25.00000000000000000, 3.061616997868383043E-15, 3.000000000000000000 ) ) ;
#106 = ADVANCED_BREP_SHAPE_REPRESENTATION ( 'Web Model 34602_13346', ( #175, #91 ), #135 ) ;
#107 = DATE_AND_TIME ( #141, #123 ) ;
#108 = CARTESIAN_POINT ( 'NONE',  ( 0.0000000000000000000, 0.0000000000000000000, 0.0000000000000000000 ) ) ;
#109 = APPROVAL_STATUS ( 'not_yet_approved' ) ;
#110 = ORGANIZATION ( 'UNSPECIFIED', 'UNSPECIFIED', '' ) ;
#111 = AXIS2_PLACEMENT_3D ( 'NONE', #112, #63, #78 ) ;
#112 = CARTESIAN_POINT ( 'NONE',  ( 0.0000000000000000000, 0.0000000000000000000, 3.000000000000000000 ) ) ;
#113 = LOCAL_TIME ( 8, 32, 21.00000000000000000, #75 ) ;
#114 = DIRECTION ( 'NONE',  ( -1.000000000000000000, 0.0000000000000000000, 0.0000000000000000000 ) ) ;
#115 = DATE_AND_TIME ( #23, #97 ) ;
#116 = DIRECTION ( 'NONE',  ( 1.000000000000000000, 0.0000000000000000000, 0.0000000000000000000 ) ) ;
#117 =( NAMED_UNIT ( * ) PLANE_ANGLE_UNIT ( ) SI_UNIT ( $, .RADIAN. ) );
#118 = PERSON_AND_ORGANIZATION_ROLE ( 'design_owner' ) ;
#119 =( LENGTH_UNIT ( ) NAMED_UNIT ( * ) SI_UNIT ( .MILLI., .METRE. ) );
#120 = APPROVAL_DATE_TIME ( #115, #82 ) ;
#121 = CARTESIAN_POINT ( 'NONE',  ( -25.00000000000000000, 0.0000000000000000000, -3.000000000000000000 ) ) ;
#122 = PERSON_AND_ORGANIZATION ( #132, #110 ) ;
#123 = LOCAL_TIME ( 8, 32, 21.00000000000000000, #39 ) ;
#124 = ORIENTED_EDGE ( 'NONE', *, *, #174, .T. ) ;
#125 = AXIS2_PLACEMENT_3D ( 'NONE', #64, #92, #114 ) ;
#126 = DATE_TIME_ROLE ( 'classification_date' ) ;
#127 = APPROVAL_STATUS ( 'not_yet_approved' ) ;
#128 = LOCAL_TIME ( 8, 32, 21.00000000000000000, #28 ) ;
#129 = CARTESIAN_POINT ( 'NONE',  ( 0.0000000000000000000, 0.0000000000000000000, -3.000000000000000000 ) ) ;
#130 = CC_DESIGN_APPROVAL ( #49, ( #81 ) ) ;
#131 = CALENDAR_DATE ( 2020, 4, 11 ) ;
#132 = PERSON ( 'UNSPECIFIED', 'UNSPECIFIED', 'UNSPECIFIED', ('UNSPECIFIED'), ('UNSPECIFIED'), ('UNSPECIFIED') ) ;
#133 = DIRECTION ( 'NONE',  ( 0.0000000000000000000, 0.0000000000000000000, 1.000000000000000000 ) ) ;
#134 = MECHANICAL_CONTEXT ( 'NONE', #83, 'mechanical' ) ;
#135 =( GEOMETRIC_REPRESENTATION_CONTEXT ( 3 ) GLOBAL_UNCERTAINTY_ASSIGNED_CONTEXT ( ( #55 ) ) GLOBAL_UNIT_ASSIGNED_CONTEXT ( ( #119, #117, #12 ) ) REPRESENTATION_CONTEXT ( 'NONE', 'WORKASPACE' ) );
#136 = PERSON_AND_ORGANIZATION_ROLE ( 'classification_officer' ) ;
#137 = APPROVAL_ROLE ( '' ) ;
#138 = FACE_OUTER_BOUND ( 'NONE', #168, .T. ) ;
#139 = ADVANCED_FACE ( 'NONE', ( #138 ), #160, .T. ) ;
#140 = PLANE ( 'NONE',  #151 ) ;
#141 = CALENDAR_DATE ( 2020, 4, 11 ) ;
#142 = ADVANCED_FACE ( 'NONE', ( #156 ), #70, .T. ) ;
#143 = VECTOR ( 'NONE', #146, 1000.000000000000000 ) ;
#144 = ADVANCED_FACE ( 'NONE', ( #43 ), #103, .T. ) ;
#145 = ORIENTED_EDGE ( 'NONE', *, *, #87, .T. ) ;
#146 = DIRECTION ( 'NONE',  ( -0.0000000000000000000, -0.0000000000000000000, -1.000000000000000000 ) ) ;
#147 = CARTESIAN_POINT ( 'NONE',  ( 0.0000000000000000000, 0.0000000000000000000, 3.000000000000000000 ) ) ;
#148 = CIRCLE ( 'NONE', #111, 25.00000000000000000 ) ;
#149 = CARTESIAN_POINT ( 'NONE',  ( -25.00000000000000000, 0.0000000000000000000, 3.000000000000000000 ) ) ;
#150 = APPLICATION_PROTOCOL_DEFINITION ( 'international standard', 'config_control_design', 1994, #83 ) ;
#151 = AXIS2_PLACEMENT_3D ( 'NONE', #164, #48, #25 ) ;
#152 = VERTEX_POINT ( 'NONE', #105 ) ;
#153 = SECURITY_CLASSIFICATION_LEVEL ( 'unclassified' ) ;
#154 = AXIS2_PLACEMENT_3D ( 'NONE', #147, #162, #3 ) ;
#155 = APPROVAL_PERSON_ORGANIZATION ( #11, #49, #94 ) ;
#156 = FACE_OUTER_BOUND ( 'NONE', #44, .T. ) ;
#157 = CLOSED_SHELL ( 'NONE', ( #142, #144, #139, #172 ) ) ;
#158 = CC_DESIGN_PERSON_AND_ORGANIZATION_ASSIGNMENT ( #35, #15, ( #29 ) ) ;
#159 = DESIGN_CONTEXT ( 'detailed design', #36, 'design' ) ;
#160 = PLANE ( 'NONE',  #27 ) ;
#161 = ORIENTED_EDGE ( 'NONE', *, *, #87, .F. ) ;
#162 = DIRECTION ( 'NONE',  ( -0.0000000000000000000, -0.0000000000000000000, -1.000000000000000000 ) ) ;
#163 = EDGE_CURVE ( 'NONE', #99, #152, #60, .T. ) ;
#164 = CARTESIAN_POINT ( 'NONE',  ( 0.0000000000000000000, 0.0000000000000000000, -3.000000000000000000 ) ) ;
#165 = EDGE_LOOP ( 'NONE', ( #104, #17 ) ) ;
#166 = COORDINATED_UNIVERSAL_TIME_OFFSET ( 5, 0, .BEHIND. ) ;
#167 = LOCAL_TIME ( 8, 32, 21.00000000000000000, #54 ) ;
#168 = EDGE_LOOP ( 'NONE', ( #30, #171 ) ) ;
#169 = DATE_TIME_ROLE ( 'creation_date' ) ;
#170 = APPROVAL_DATE_TIME ( #24, #58 ) ;
#171 = ORIENTED_EDGE ( 'NONE', *, *, #89, .T. ) ;
#172 = ADVANCED_FACE ( 'NONE', ( #14 ), #140, .F. ) ;
#173 = CALENDAR_DATE ( 2020, 4, 11 ) ;
#174 = EDGE_CURVE ( 'NONE', #71, #85, #93, .T. ) ;
#175 = MANIFOLD_SOLID_BREP ( 'Boss-Extrude1', #157 ) ;
ENDSEC;
END-ISO-10303-21;
