ISO-10303-21;
HEADER;
FILE_DESCRIPTION (( 'STEP AP203' ),
    '1' );
FILE_NAME ('Web Model 11878_13339.step',
    '2020-11-04T13:44:03',
    ( '' ),
    ( '' ),
    'SwSTEP 2.0',
    'SolidWorks 2018',
    '' );
FILE_SCHEMA (( 'CONFIG_CONTROL_DESIGN' ));
ENDSEC;

DATA;
#1 = AXIS2_PLACEMENT_3D ( 'NONE', #212, #233, #103 ) ;
#2 = APPROVAL_ROLE ( '' ) ;
#3 = DATE_TIME_ROLE ( 'creation_date' ) ;
#4 = CIRCLE ( 'NONE', #156, 12.50000000000000000 ) ;
#5 = EDGE_CURVE ( 'NONE', #194, #27, #169, .T. ) ;
#6 = COORDINATED_UNIVERSAL_TIME_OFFSET ( 5, 0, .BEHIND. ) ;
#7 = AXIS2_PLACEMENT_3D ( 'NONE', #98, #167, #14 ) ;
#8 = UNCERTAINTY_MEASURE_WITH_UNIT (LENGTH_MEASURE( 1.000000000000000082E-05 ), #196, 'distance_accuracy_value', 'NONE');
#9 = DIRECTION ( 'NONE',  ( -1.000000000000000000, -0.0000000000000000000, -0.0000000000000000000 ) ) ;
#10 = ORIENTED_EDGE ( 'NONE', *, *, #31, .F. ) ;
#11 = EDGE_CURVE ( 'NONE', #238, #99, #35, .T. ) ;
#12 = CALENDAR_DATE ( 2020, 4, 11 ) ;
#13 = PLANE ( 'NONE',  #7 ) ;
#14 = DIRECTION ( 'NONE',  ( 0.0000000000000000000, 0.0000000000000000000, -1.000000000000000000 ) ) ;
#15 = COORDINATED_UNIVERSAL_TIME_OFFSET ( 5, 0, .BEHIND. ) ;
#16 = DIRECTION ( 'NONE',  ( 0.0000000000000000000, 0.0000000000000000000, -1.000000000000000000 ) ) ;
#17 = FACE_OUTER_BOUND ( 'NONE', #218, .T. ) ;
#18 = VERTEX_POINT ( 'NONE', #115 ) ;
#19 = APPROVAL ( #237, 'UNSPECIFIED' ) ;
#20 = DIRECTION ( 'NONE',  ( 1.000000000000000000, -0.0000000000000000000, -0.0000000000000000000 ) ) ;
#21 = DIRECTION ( 'NONE',  ( 0.0000000000000000000, 0.0000000000000000000, -1.000000000000000000 ) ) ;
#22 = CARTESIAN_POINT ( 'NONE',  ( 0.0000000000000000000, 0.0000000000000000000, 0.0000000000000000000 ) ) ;
#23 = DIRECTION ( 'NONE',  ( 0.0000000000000000000, 0.0000000000000000000, 1.000000000000000000 ) ) ;
#24 = AXIS2_PLACEMENT_3D ( 'NONE', #229, #74, #250 ) ;
#25 = ORIENTED_EDGE ( 'NONE', *, *, #154, .F. ) ;
#26 = AXIS2_PLACEMENT_3D ( 'NONE', #102, #186, #123 ) ;
#27 = VERTEX_POINT ( 'NONE', #179 ) ;
#28 = CONICAL_SURFACE ( 'NONE', #81, 12.45000000000000639, 0.7853981633974309595 ) ;
#29 = EDGE_LOOP ( 'NONE', ( #55, #264, #10, #252 ) ) ;
#30 = ADVANCED_FACE ( 'NONE', ( #17 ), #259, .T. ) ;
#31 = EDGE_CURVE ( 'NONE', #275, #27, #43, .T. ) ;
#32 = ORIENTED_EDGE ( 'NONE', *, *, #199, .T. ) ;
#33 = CARTESIAN_POINT ( 'NONE',  ( -2.450000000000000178, 0.0000000000000000000, 12.50000000000000000 ) ) ;
#34 = FACE_OUTER_BOUND ( 'NONE', #244, .T. ) ;
#35 = LINE ( 'NONE', #45, #221 ) ;
#36 = AXIS2_PLACEMENT_3D ( 'NONE', #210, #231, #16 ) ;
#37 = DIRECTION ( 'NONE',  ( 1.000000000000000000, 0.0000000000000000000, 0.0000000000000000000 ) ) ;
#38 = CARTESIAN_POINT ( 'NONE',  ( 2.500000000000000000, 0.0000000000000000000, 0.0000000000000000000 ) ) ;
#39 = ORIENTED_EDGE ( 'NONE', *, *, #225, .T. ) ;
#40 = AXIS2_PLACEMENT_3D ( 'NONE', #100, #125, #144 ) ;
#41 = LOCAL_TIME ( 8, 44, 3.000000000000000000, #71 ) ;
#42 = APPROVAL_STATUS ( 'not_yet_approved' ) ;
#43 = CIRCLE ( 'NONE', #92, 12.50000000000000000 ) ;
#44 = DIRECTION ( 'NONE',  ( 0.0000000000000000000, 0.0000000000000000000, -1.000000000000000000 ) ) ;
#45 = CARTESIAN_POINT ( 'NONE',  ( -2.450000000000000178, 0.0000000000000000000, -12.50000000000000000 ) ) ;
#46 = EDGE_LOOP ( 'NONE', ( #200, #226, #95, #159 ) ) ;
#47 = PRODUCT_DEFINITION ( 'UNKNOWN', '', #201, #64 ) ;
#48 = DATE_AND_TIME ( #206, #79 ) ;
#49 = APPROVAL_PERSON_ORGANIZATION ( #112, #19, #173 ) ;
#50 = EDGE_LOOP ( 'NONE', ( #248, #117, #32, #76 ) ) ;
#51 = AXIS2_PLACEMENT_3D ( 'NONE', #274, #133, #23 ) ;
#52 = PERSON_AND_ORGANIZATION ( #110, #168 ) ;
#53 = DIRECTION ( 'NONE',  ( 0.7071067811865597852, 8.659560562354782482E-17, 0.7071067811865352493 ) ) ;
#54 = DIRECTION ( 'NONE',  ( 0.0000000000000000000, 0.0000000000000000000, -1.000000000000000000 ) ) ;
#55 = ORIENTED_EDGE ( 'NONE', *, *, #193, .F. ) ;
#56 = EDGE_CURVE ( 'NONE', #27, #99, #89, .T. ) ;
#57 = CARTESIAN_POINT ( 'NONE',  ( 2.450000000000003730, 0.0000000000000000000, 12.50000000000000000 ) ) ;
#58 = PERSON_AND_ORGANIZATION_ROLE ( 'classification_officer' ) ;
#59 = APPROVAL_PERSON_ORGANIZATION ( #52, #185, #2 ) ;
#60 = APPLICATION_CONTEXT ( 'configuration controlled 3d designs of mechanical parts and assemblies' ) ;
#61 = CC_DESIGN_PERSON_AND_ORGANIZATION_ASSIGNMENT ( #68, #107, ( #201 ) ) ;
#62 = LINE ( 'NONE', #255, #114 ) ;
#63 = EDGE_LOOP ( 'NONE', ( #198, #261, #109, #204 ) ) ;
#64 = DESIGN_CONTEXT ( 'detailed design', #60, 'design' ) ;
#65 = EDGE_CURVE ( 'NONE', #27, #275, #163, .T. ) ;
#66 = CYLINDRICAL_SURFACE ( 'NONE', #51, 12.50000000000000000 ) ;
#67 = DIRECTION ( 'NONE',  ( 0.7071067811865597852, 0.0000000000000000000, -0.7071067811865352493 ) ) ;
#68 = PERSON_AND_ORGANIZATION ( #110, #168 ) ;
#69 = DIRECTION ( 'NONE',  ( 0.0000000000000000000, 0.0000000000000000000, 1.000000000000000000 ) ) ;
#70 = VERTEX_POINT ( 'NONE', #93 ) ;
#71 = COORDINATED_UNIVERSAL_TIME_OFFSET ( 5, 0, .BEHIND. ) ;
#72 = CALENDAR_DATE ( 2020, 4, 11 ) ;
#73 = DIRECTION ( 'NONE',  ( 0.0000000000000000000, 0.0000000000000000000, -1.000000000000000000 ) ) ;
#74 = DIRECTION ( 'NONE',  ( 1.000000000000000000, 0.0000000000000000000, 0.0000000000000000000 ) ) ;
#75 = SECURITY_CLASSIFICATION ( '', '', #149 ) ;
#76 = ORIENTED_EDGE ( 'NONE', *, *, #65, .F. ) ;
#77 = DIRECTION ( 'NONE',  ( 0.0000000000000000000, 0.0000000000000000000, 1.000000000000000000 ) ) ;
#78 = CARTESIAN_POINT ( 'NONE',  ( -2.450000000000000178, 0.0000000000000000000, 0.0000000000000000000 ) ) ;
#79 = LOCAL_TIME ( 8, 44, 3.000000000000000000, #15 ) ;
#80 = DIRECTION ( 'NONE',  ( 1.000000000000000000, -0.0000000000000000000, -0.0000000000000000000 ) ) ;
#81 = AXIS2_PLACEMENT_3D ( 'NONE', #38, #192, #77 ) ;
#82 = DIRECTION ( 'NONE',  ( 1.000000000000000000, 0.0000000000000000000, 0.0000000000000000000 ) ) ;
#83 = PERSON_AND_ORGANIZATION ( #110, #168 ) ;
#84 = FACE_OUTER_BOUND ( 'NONE', #271, .T. ) ;
#85 = ORIENTED_EDGE ( 'NONE', *, *, #128, .F. ) ;
#86 = ORIENTED_EDGE ( 'NONE', *, *, #177, .T. ) ;
#87 = COORDINATED_UNIVERSAL_TIME_OFFSET ( 5, 0, .BEHIND. ) ;
#88 = APPROVAL_DATE_TIME ( #207, #19 ) ;
#89 = LINE ( 'NONE', #245, #184 ) ;
#90 = CLOSED_SHELL ( 'NONE', ( #247, #142, #30, #246, #94, #209, #119, #187 ) ) ;
#91 = PRODUCT_DEFINITION_SHAPE ( 'NONE', 'NONE',  #47 ) ;
#92 = AXIS2_PLACEMENT_3D ( 'NONE', #116, #266, #140 ) ;
#93 = CARTESIAN_POINT ( 'NONE',  ( 2.500000000000000000, 0.0000000000000000000, 12.45000000000000639 ) ) ;
#94 = ADVANCED_FACE ( 'NONE', ( #34 ), #96, .T. ) ;
#95 = ORIENTED_EDGE ( 'NONE', *, *, #128, .T. ) ;
#96 = PLANE ( 'NONE',  #208 ) ;
#97 = FACE_OUTER_BOUND ( 'NONE', #63, .T. ) ;
#98 = CARTESIAN_POINT ( 'NONE',  ( -2.500000000000000000, 0.0000000000000000000, 0.0000000000000000000 ) ) ;
#99 = VERTEX_POINT ( 'NONE', #183 ) ;
#100 = CARTESIAN_POINT ( 'NONE',  ( 2.500000000000000000, 0.0000000000000000000, 0.0000000000000000000 ) ) ;
#101 = PRODUCT ( 'Web Model 11878_13339', 'Web Model 11878_13339', '', ( #171 ) ) ;
#102 = CARTESIAN_POINT ( 'NONE',  ( -2.450000000000000178, 0.0000000000000000000, 0.0000000000000000000 ) ) ;
#103 = DIRECTION ( 'NONE',  ( 0.0000000000000000000, 0.0000000000000000000, -1.000000000000000000 ) ) ;
#104 = LOCAL_TIME ( 8, 44, 3.000000000000000000, #160 ) ;
#105 = CC_DESIGN_APPROVAL ( #19, ( #47 ) ) ;
#106 = APPLICATION_PROTOCOL_DEFINITION ( 'international standard', 'config_control_design', 1994, #60 ) ;
#107 = PERSON_AND_ORGANIZATION_ROLE ( 'design_supplier' ) ;
#108 = FACE_OUTER_BOUND ( 'NONE', #29, .T. ) ;
#109 = ORIENTED_EDGE ( 'NONE', *, *, #177, .F. ) ;
#110 = PERSON ( 'UNSPECIFIED', 'UNSPECIFIED', 'UNSPECIFIED', ('UNSPECIFIED'), ('UNSPECIFIED'), ('UNSPECIFIED') ) ;
#111 = APPROVAL_DATE_TIME ( #121, #188 ) ;
#112 = PERSON_AND_ORGANIZATION ( #110, #168 ) ;
#113 = CC_DESIGN_PERSON_AND_ORGANIZATION_ASSIGNMENT ( #176, #195, ( #101 ) ) ;
#114 = VECTOR ( 'NONE', #53, 1000.000000000000000 ) ;
#115 = CARTESIAN_POINT ( 'NONE',  ( -2.500000000000000000, 1.527746881936323379E-15, 12.45000000000000284 ) ) ;
#116 = CARTESIAN_POINT ( 'NONE',  ( 2.450000000000003730, 0.0000000000000000000, 0.0000000000000000000 ) ) ;
#117 = ORIENTED_EDGE ( 'NONE', *, *, #222, .F. ) ;
#118 = CC_DESIGN_PERSON_AND_ORGANIZATION_ASSIGNMENT ( #213, #126, ( #47 ) ) ;
#119 = ADVANCED_FACE ( 'NONE', ( #180 ), #28, .T. ) ;
#120 = CARTESIAN_POINT ( 'NONE',  ( -2.450000000000000178, 0.0000000000000000000, 0.0000000000000000000 ) ) ;
#121 = DATE_AND_TIME ( #243, #258 ) ;
#122 = CIRCLE ( 'NONE', #172, 12.45000000000000284 ) ;
#123 = DIRECTION ( 'NONE',  ( 0.0000000000000000000, 0.0000000000000000000, -1.000000000000000000 ) ) ;
#124 = ORIENTED_EDGE ( 'NONE', *, *, #135, .F. ) ;
#125 = DIRECTION ( 'NONE',  ( -1.000000000000000000, 0.0000000000000000000, 0.0000000000000000000 ) ) ;
#126 = PERSON_AND_ORGANIZATION_ROLE ( 'creator' ) ;
#127 = APPROVAL_ROLE ( '' ) ;
#128 = EDGE_CURVE ( 'NONE', #275, #152, #251, .T. ) ;
#129 = FACE_OUTER_BOUND ( 'NONE', #267, .T. ) ;
#130 = CARTESIAN_POINT ( 'NONE',  ( -2.500000000000000000, 0.0000000000000000000, 0.0000000000000000000 ) ) ;
#131 = DATE_TIME_ROLE ( 'classification_date' ) ;
#132 = CC_DESIGN_DATE_AND_TIME_ASSIGNMENT ( #48, #131, ( #75 ) ) ;
#133 = DIRECTION ( 'NONE',  ( -1.000000000000000000, -0.0000000000000000000, -0.0000000000000000000 ) ) ;
#134 = ORIENTED_EDGE ( 'NONE', *, *, #11, .T. ) ;
#135 = EDGE_CURVE ( 'NONE', #238, #18, #122, .T. ) ;
#136 = MANIFOLD_SOLID_BREP ( 'Chamfer1', #90 ) ;
#137 = PERSON_AND_ORGANIZATION ( #110, #168 ) ;
#138 = ORIENTED_EDGE ( 'NONE', *, *, #56, .T. ) ;
#139 = DIRECTION ( 'NONE',  ( -0.7071067811865597852, 8.659560562354782482E-17, -0.7071067811865352493 ) ) ;
#140 = DIRECTION ( 'NONE',  ( 0.0000000000000000000, 0.0000000000000000000, -1.000000000000000000 ) ) ;
#141 = APPROVAL_DATE_TIME ( #224, #185 ) ;
#142 = ADVANCED_FACE ( 'NONE', ( #108 ), #151, .T. ) ;
#143 = AXIS2_PLACEMENT_3D ( 'NONE', #205, #262, #69 ) ;
#144 = DIRECTION ( 'NONE',  ( 0.0000000000000000000, 0.0000000000000000000, 1.000000000000000000 ) ) ;
#145 = ORIENTED_EDGE ( 'NONE', *, *, #135, .T. ) ;
#146 = CARTESIAN_POINT ( 'NONE',  ( 2.500000000000000000, 0.0000000000000000000, 12.50000000000000000 ) ) ;
#147 = CARTESIAN_POINT ( 'NONE',  ( -2.500000000000000000, 0.0000000000000000000, 0.0000000000000000000 ) ) ;
#148 = CC_DESIGN_APPROVAL ( #185, ( #201 ) ) ;
#149 = SECURITY_CLASSIFICATION_LEVEL ( 'unclassified' ) ;
#150 = APPROVAL_PERSON_ORGANIZATION ( #239, #188, #127 ) ;
#151 = CONICAL_SURFACE ( 'NONE', #40, 12.45000000000000639, 0.7853981633974309595 ) ;
#152 = VERTEX_POINT ( 'NONE', #33 ) ;
#153 = APPROVAL_STATUS ( 'not_yet_approved' ) ;
#154 = EDGE_CURVE ( 'NONE', #152, #99, #190, .T. ) ;
#155 = DATE_AND_TIME ( #12, #41 ) ;
#156 = AXIS2_PLACEMENT_3D ( 'NONE', #170, #189, #253 ) ;
#157 = CIRCLE ( 'NONE', #24, 12.45000000000000639 ) ;
#158 = CC_DESIGN_PERSON_AND_ORGANIZATION_ASSIGNMENT ( #83, #256, ( #201 ) ) ;
#159 = ORIENTED_EDGE ( 'NONE', *, *, #154, .T. ) ;
#160 = COORDINATED_UNIVERSAL_TIME_OFFSET ( 5, 0, .BEHIND. ) ;
#161 = ORIENTED_EDGE ( 'NONE', *, *, #193, .T. ) ;
#162 = CC_DESIGN_PERSON_AND_ORGANIZATION_ASSIGNMENT ( #137, #58, ( #75 ) ) ;
#163 = CIRCLE ( 'NONE', #36, 12.50000000000000000 ) ;
#164 = CARTESIAN_POINT ( 'NONE',  ( 2.500000000000000000, 0.0000000000000000000, 12.45000000000000639 ) ) ;
#165 = CARTESIAN_POINT ( 'NONE',  ( 2.500000000000000000, 0.0000000000000000000, 0.0000000000000000000 ) ) ;
#166 = AXIS2_PLACEMENT_3D ( 'NONE', #130, #175, #44 ) ;
#167 = DIRECTION ( 'NONE',  ( 1.000000000000000000, 0.0000000000000000000, 0.0000000000000000000 ) ) ;
#168 = ORGANIZATION ( 'UNSPECIFIED', 'UNSPECIFIED', '' ) ;
#169 = LINE ( 'NONE', #241, #182 ) ;
#170 = CARTESIAN_POINT ( 'NONE',  ( -2.450000000000000178, 0.0000000000000000000, 0.0000000000000000000 ) ) ;
#171 = MECHANICAL_CONTEXT ( 'NONE', #257, 'mechanical' ) ;
#172 = AXIS2_PLACEMENT_3D ( 'NONE', #147, #228, #54 ) ;
#173 = APPROVAL_ROLE ( '' ) ;
#174 = DIRECTION ( 'NONE',  ( 0.0000000000000000000, 0.0000000000000000000, 1.000000000000000000 ) ) ;
#175 = DIRECTION ( 'NONE',  ( -1.000000000000000000, -0.0000000000000000000, -0.0000000000000000000 ) ) ;
#176 = PERSON_AND_ORGANIZATION ( #110, #168 ) ;
#177 = EDGE_CURVE ( 'NONE', #99, #152, #4, .T. ) ;
#178 = CONICAL_SURFACE ( 'NONE', #219, 12.50000000000000000, 0.7853981633974309595 ) ;
#179 = CARTESIAN_POINT ( 'NONE',  ( 2.450000000000003730, 1.530808498934191521E-15, -12.50000000000000000 ) ) ;
#180 = FACE_OUTER_BOUND ( 'NONE', #50, .T. ) ;
#181 = AXIS2_PLACEMENT_3D ( 'NONE', #22, #174, #82 ) ;
#182 = VECTOR ( 'NONE', #139, 1000.000000000000000 ) ;
#183 = CARTESIAN_POINT ( 'NONE',  ( -2.450000000000000178, 1.530808498934191521E-15, -12.50000000000000000 ) ) ;
#184 = VECTOR ( 'NONE', #9, 1000.000000000000000 ) ;
#185 = APPROVAL ( #153, 'UNSPECIFIED' ) ;
#186 = DIRECTION ( 'NONE',  ( 1.000000000000000000, -0.0000000000000000000, -0.0000000000000000000 ) ) ;
#187 = ADVANCED_FACE ( 'NONE', ( #129 ), #178, .T. ) ;
#188 = APPROVAL ( #42, 'UNSPECIFIED' ) ;
#189 = DIRECTION ( 'NONE',  ( 1.000000000000000000, -0.0000000000000000000, -0.0000000000000000000 ) ) ;
#190 = CIRCLE ( 'NONE', #26, 12.50000000000000000 ) ;
#191 = ORIENTED_EDGE ( 'NONE', *, *, #222, .T. ) ;
#192 = DIRECTION ( 'NONE',  ( -1.000000000000000000, 0.0000000000000000000, 0.0000000000000000000 ) ) ;
#193 = EDGE_CURVE ( 'NONE', #194, #70, #157, .T. ) ;
#194 = VERTEX_POINT ( 'NONE', #214 ) ;
#195 = PERSON_AND_ORGANIZATION_ROLE ( 'design_owner' ) ;
#196 =( LENGTH_UNIT ( ) NAMED_UNIT ( * ) SI_UNIT ( .MILLI., .METRE. ) );
#197 = CARTESIAN_POINT ( 'NONE',  ( -2.500000000000000000, 0.0000000000000000000, -12.45000000000000284 ) ) ;
#198 = ORIENTED_EDGE ( 'NONE', *, *, #225, .F. ) ;
#199 = EDGE_CURVE ( 'NONE', #70, #275, #236, .T. ) ;
#200 = ORIENTED_EDGE ( 'NONE', *, *, #56, .F. ) ;
#201 = PRODUCT_DEFINITION_FORMATION_WITH_SPECIFIED_SOURCE ( 'ANY', '', #101, .NOT_KNOWN. ) ;
#202 =( GEOMETRIC_REPRESENTATION_CONTEXT ( 3 ) GLOBAL_UNCERTAINTY_ASSIGNED_CONTEXT ( ( #8 ) ) GLOBAL_UNIT_ASSIGNED_CONTEXT ( ( #196, #216, #215 ) ) REPRESENTATION_CONTEXT ( 'NONE', 'WORKASPACE' ) );
#203 = CIRCLE ( 'NONE', #166, 12.45000000000000284 ) ;
#204 = ORIENTED_EDGE ( 'NONE', *, *, #11, .F. ) ;
#205 = CARTESIAN_POINT ( 'NONE',  ( 2.500000000000000000, 0.0000000000000000000, 0.0000000000000000000 ) ) ;
#206 = CALENDAR_DATE ( 2020, 4, 11 ) ;
#207 = DATE_AND_TIME ( #72, #104 ) ;
#208 = AXIS2_PLACEMENT_3D ( 'NONE', #165, #37, #73 ) ;
#209 = ADVANCED_FACE ( 'NONE', ( #84 ), #13, .F. ) ;
#210 = CARTESIAN_POINT ( 'NONE',  ( 2.450000000000003730, 0.0000000000000000000, 0.0000000000000000000 ) ) ;
#211 = ORIENTED_EDGE ( 'NONE', *, *, #31, .T. ) ;
#212 = CARTESIAN_POINT ( 'NONE',  ( 2.500000000000000000, 0.0000000000000000000, 0.0000000000000000000 ) ) ;
#213 = PERSON_AND_ORGANIZATION ( #110, #168 ) ;
#214 = CARTESIAN_POINT ( 'NONE',  ( 2.500000000000000000, 1.527746881936323576E-15, -12.45000000000000639 ) ) ;
#215 =( NAMED_UNIT ( * ) SI_UNIT ( $, .STERADIAN. ) SOLID_ANGLE_UNIT ( ) );
#216 =( NAMED_UNIT ( * ) PLANE_ANGLE_UNIT ( ) SI_UNIT ( $, .RADIAN. ) );
#217 = CONICAL_SURFACE ( 'NONE', #254, 12.50000000000000000, 0.7853981633974309595 ) ;
#218 = EDGE_LOOP ( 'NONE', ( #211, #138, #86, #85 ) ) ;
#219 = AXIS2_PLACEMENT_3D ( 'NONE', #120, #20, #268 ) ;
#220 = FACE_OUTER_BOUND ( 'NONE', #46, .T. ) ;
#221 = VECTOR ( 'NONE', #67, 1000.000000000000000 ) ;
#222 = EDGE_CURVE ( 'NONE', #70, #194, #227, .T. ) ;
#223 = SHAPE_DEFINITION_REPRESENTATION ( #91, #265 ) ;
#224 = DATE_AND_TIME ( #240, #269 ) ;
#225 = EDGE_CURVE ( 'NONE', #18, #238, #203, .T. ) ;
#226 = ORIENTED_EDGE ( 'NONE', *, *, #65, .T. ) ;
#227 = CIRCLE ( 'NONE', #1, 12.45000000000000639 ) ;
#228 = DIRECTION ( 'NONE',  ( -1.000000000000000000, -0.0000000000000000000, -0.0000000000000000000 ) ) ;
#229 = CARTESIAN_POINT ( 'NONE',  ( 2.500000000000000000, 0.0000000000000000000, 0.0000000000000000000 ) ) ;
#230 = CC_DESIGN_APPROVAL ( #188, ( #75 ) ) ;
#231 = DIRECTION ( 'NONE',  ( -1.000000000000000000, 0.0000000000000000000, 0.0000000000000000000 ) ) ;
#232 = ORIENTED_EDGE ( 'NONE', *, *, #235, .F. ) ;
#233 = DIRECTION ( 'NONE',  ( 1.000000000000000000, 0.0000000000000000000, 0.0000000000000000000 ) ) ;
#234 = APPLICATION_PROTOCOL_DEFINITION ( 'international standard', 'config_control_design', 1994, #257 ) ;
#235 = EDGE_CURVE ( 'NONE', #18, #152, #62, .T. ) ;
#236 = LINE ( 'NONE', #164, #270 ) ;
#237 = APPROVAL_STATUS ( 'not_yet_approved' ) ;
#238 = VERTEX_POINT ( 'NONE', #197 ) ;
#239 = PERSON_AND_ORGANIZATION ( #110, #168 ) ;
#240 = CALENDAR_DATE ( 2020, 4, 11 ) ;
#241 = CARTESIAN_POINT ( 'NONE',  ( 2.500000000000000000, 1.524685264938455434E-15, -12.45000000000000639 ) ) ;
#242 = CC_DESIGN_SECURITY_CLASSIFICATION ( #75, ( #201 ) ) ;
#243 = CALENDAR_DATE ( 2020, 4, 11 ) ;
#244 = EDGE_LOOP ( 'NONE', ( #191, #161 ) ) ;
#245 = CARTESIAN_POINT ( 'NONE',  ( 2.500000000000000000, 1.530808498934191521E-15, -12.50000000000000000 ) ) ;
#246 = ADVANCED_FACE ( 'NONE', ( #220 ), #66, .T. ) ;
#247 = ADVANCED_FACE ( 'NONE', ( #97 ), #217, .T. ) ;
#248 = ORIENTED_EDGE ( 'NONE', *, *, #5, .F. ) ;
#249 = DIRECTION ( 'NONE',  ( -1.000000000000000000, -0.0000000000000000000, -0.0000000000000000000 ) ) ;
#250 = DIRECTION ( 'NONE',  ( 0.0000000000000000000, 0.0000000000000000000, -1.000000000000000000 ) ) ;
#251 = LINE ( 'NONE', #146, #263 ) ;
#252 = ORIENTED_EDGE ( 'NONE', *, *, #199, .F. ) ;
#253 = DIRECTION ( 'NONE',  ( 0.0000000000000000000, 0.0000000000000000000, -1.000000000000000000 ) ) ;
#254 = AXIS2_PLACEMENT_3D ( 'NONE', #78, #80, #21 ) ;
#255 = CARTESIAN_POINT ( 'NONE',  ( -2.450000000000000178, 1.530808498934191521E-15, 12.50000000000000000 ) ) ;
#256 = PERSON_AND_ORGANIZATION_ROLE ( 'creator' ) ;
#257 = APPLICATION_CONTEXT ( 'configuration controlled 3d designs of mechanical parts and assemblies' ) ;
#258 = LOCAL_TIME ( 8, 44, 3.000000000000000000, #87 ) ;
#259 = CYLINDRICAL_SURFACE ( 'NONE', #143, 12.50000000000000000 ) ;
#260 = PRODUCT_RELATED_PRODUCT_CATEGORY ( 'detail', '', ( #101 ) ) ;
#261 = ORIENTED_EDGE ( 'NONE', *, *, #235, .T. ) ;
#262 = DIRECTION ( 'NONE',  ( -1.000000000000000000, -0.0000000000000000000, -0.0000000000000000000 ) ) ;
#263 = VECTOR ( 'NONE', #249, 1000.000000000000000 ) ;
#264 = ORIENTED_EDGE ( 'NONE', *, *, #5, .T. ) ;
#265 = ADVANCED_BREP_SHAPE_REPRESENTATION ( 'Web Model 11878_13339', ( #136, #181 ), #202 ) ;
#266 = DIRECTION ( 'NONE',  ( -1.000000000000000000, 0.0000000000000000000, 0.0000000000000000000 ) ) ;
#267 = EDGE_LOOP ( 'NONE', ( #232, #124, #134, #25 ) ) ;
#268 = DIRECTION ( 'NONE',  ( 0.0000000000000000000, 0.0000000000000000000, -1.000000000000000000 ) ) ;
#269 = LOCAL_TIME ( 8, 44, 3.000000000000000000, #6 ) ;
#270 = VECTOR ( 'NONE', #273, 1000.000000000000000 ) ;
#271 = EDGE_LOOP ( 'NONE', ( #145, #39 ) ) ;
#272 = CC_DESIGN_DATE_AND_TIME_ASSIGNMENT ( #155, #3, ( #47 ) ) ;
#273 = DIRECTION ( 'NONE',  ( -0.7071067811865597852, 0.0000000000000000000, 0.7071067811865352493 ) ) ;
#274 = CARTESIAN_POINT ( 'NONE',  ( 2.500000000000000000, 0.0000000000000000000, 0.0000000000000000000 ) ) ;
#275 = VERTEX_POINT ( 'NONE', #57 ) ;
ENDSEC;
END-ISO-10303-21;
