ISO-10303-21;
HEADER;
FILE_DESCRIPTION (( 'STEP AP214' ),
    '1' );
FILE_NAME ('21239.step',
    '2022-06-17T16:47:12',
    ( '' ),
    ( '' ),
    'SwSTEP 2.0',
    'SolidWorks 2021',
    '' );
FILE_SCHEMA (( 'AUTOMOTIVE_DESIGN' ));
ENDSEC;

DATA;
#1 = CARTESIAN_POINT ( 'NONE',  ( 0.000000000000000000, 0.000000000000000000, 0.000000000000000000 ) ) ;
#2 = ADVANCED_FACE ( 'NONE', ( #77 ), #93, .T. ) ;
#3 = DIRECTION ( 'NONE',  ( 0.000000000000000000, 0.000000000000000000, 1.000000000000000000 ) ) ;
#4 = MECHANICAL_DESIGN_GEOMETRIC_PRESENTATION_REPRESENTATION (  '', ( #48 ), #113 ) ;
#5 =( NAMED_UNIT ( * ) PLANE_ANGLE_UNIT ( ) SI_UNIT ( $, .RADIAN. ) );
#6 = FILL_AREA_STYLE_COLOUR ( '', #47 ) ;
#7 = APPLICATION_PROTOCOL_DEFINITION ( 'draft international standard', 'automotive_design', 1998, #22 ) ;
#8 = CLOSED_SHELL ( 'NONE', ( #2, #64, #124, #100 ) ) ;
#9 = CARTESIAN_POINT ( 'NONE',  ( -50.00000000000000000, 0.000000000000000000, 1.100000000000000089 ) ) ;
#10 = CYLINDRICAL_SURFACE ( 'NONE', #45, 50.00000000000000000 ) ;
#11 = ORIENTED_EDGE ( 'NONE', *, *, #19, .T. ) ;
#12 = DIRECTION ( 'NONE',  ( 1.000000000000000000, 0.000000000000000000, 0.000000000000000000 ) ) ;
#13 =( LENGTH_UNIT ( ) NAMED_UNIT ( * ) SI_UNIT ( .MILLI., .METRE. ) );
#14 = APPLICATION_CONTEXT ( 'automotive_design' ) ;
#15 = CARTESIAN_POINT ( 'NONE',  ( -50.00000000000000000, 0.000000000000000000, 0.000000000000000000 ) ) ;
#16 = CIRCLE ( 'NONE', #67, 50.00000000000000000 ) ;
#17 =( NAMED_UNIT ( * ) SI_UNIT ( $, .STERADIAN. ) SOLID_ANGLE_UNIT ( ) );
#18 = PRODUCT_DEFINITION_SHAPE ( 'NONE', 'NONE',  #86 ) ;
#19 = EDGE_CURVE ( 'NONE', #130, #114, #32, .T. ) ;
#20 = CARTESIAN_POINT ( 'NONE',  ( 0.000000000000000000, 0.000000000000000000, 1.100000000000000089 ) ) ;
#21 = ORIENTED_EDGE ( 'NONE', *, *, #40, .F. ) ;
#22 = APPLICATION_CONTEXT ( 'automotive_design' ) ;
#23 = VERTEX_POINT ( 'NONE', #112 ) ;
#24 = AXIS2_PLACEMENT_3D ( 'NONE', #127, #101, #12 ) ;
#25 = CARTESIAN_POINT ( 'NONE',  ( 0.000000000000000000, 0.000000000000000000, 1.100000000000000089 ) ) ;
#26 = DIRECTION ( 'NONE',  ( 1.000000000000000000, 0.000000000000000000, -0.000000000000000000 ) ) ;
#27 =( NAMED_UNIT ( * ) SI_UNIT ( $, .STERADIAN. ) SOLID_ANGLE_UNIT ( ) );
#28 = DIRECTION ( 'NONE',  ( 1.000000000000000000, 0.000000000000000000, 0.000000000000000000 ) ) ;
#29 = UNCERTAINTY_MEASURE_WITH_UNIT (LENGTH_MEASURE( 1.000000000000000082E-05 ), #13, 'distance_accuracy_value', 'NONE');
#30 = EDGE_LOOP ( 'NONE', ( #21, #66, #102, #33 ) ) ;
#31 = ORIENTED_EDGE ( 'NONE', *, *, #108, .F. ) ;
#32 = LINE ( 'NONE', #9, #54 ) ;
#33 = ORIENTED_EDGE ( 'NONE', *, *, #19, .F. ) ;
#34 = SURFACE_SIDE_STYLE ('',( #96 ) ) ;
#35 =( NAMED_UNIT ( * ) PLANE_ANGLE_UNIT ( ) SI_UNIT ( $, .RADIAN. ) );
#36 = PRODUCT_RELATED_PRODUCT_CATEGORY ( 'part', '', ( #49 ) ) ;
#37 = AXIS2_PLACEMENT_3D ( 'NONE', #20, #99, #84 ) ;
#38 =( GEOMETRIC_REPRESENTATION_CONTEXT ( 3 ) GLOBAL_UNCERTAINTY_ASSIGNED_CONTEXT ( ( #136 ) ) GLOBAL_UNIT_ASSIGNED_CONTEXT ( ( #75, #35, #17 ) ) REPRESENTATION_CONTEXT ( 'NONE', 'WORKASPACE' ) );
#39 = EDGE_LOOP ( 'NONE', ( #85, #31, #11, #41 ) ) ;
#40 = EDGE_CURVE ( 'NONE', #125, #130, #46, .T. ) ;
#41 = ORIENTED_EDGE ( 'NONE', *, *, #70, .T. ) ;
#42 = CIRCLE ( 'NONE', #110, 50.00000000000000000 ) ;
#43 = SURFACE_STYLE_USAGE ( .BOTH. , #34 ) ;
#44 = FACE_OUTER_BOUND ( 'NONE', #92, .T. ) ;
#45 = AXIS2_PLACEMENT_3D ( 'NONE', #51, #140, #76 ) ;
#46 = CIRCLE ( 'NONE', #24, 50.00000000000000000 ) ;
#47 = COLOUR_RGB ( '',0.7921568627450980005, 0.8196078431372548767, 0.9333333333333333481 ) ;
#48 = STYLED_ITEM ( 'NONE', ( #117 ), #83 ) ;
#49 = PRODUCT ( '21239', '21239', '', ( #123 ) ) ;
#50 = DIRECTION ( 'NONE',  ( -0.000000000000000000, -0.000000000000000000, -1.000000000000000000 ) ) ;
#51 = CARTESIAN_POINT ( 'NONE',  ( 0.000000000000000000, 0.000000000000000000, 1.100000000000000089 ) ) ;
#52 = ORIENTED_EDGE ( 'NONE', *, *, #40, .T. ) ;
#53 = FACE_OUTER_BOUND ( 'NONE', #39, .T. ) ;
#54 = VECTOR ( 'NONE', #50, 1000.000000000000000 ) ;
#55 = ORIENTED_EDGE ( 'NONE', *, *, #70, .F. ) ;
#56 = DIRECTION ( 'NONE',  ( 1.000000000000000000, 0.000000000000000000, 0.000000000000000000 ) ) ;
#57 = FACE_OUTER_BOUND ( 'NONE', #65, .T. ) ;
#58 = UNCERTAINTY_MEASURE_WITH_UNIT (LENGTH_MEASURE( 1.000000000000000082E-05 ), #71, 'distance_accuracy_value', 'NONE');
#59 = CIRCLE ( 'NONE', #89, 50.00000000000000000 ) ;
#60 = CARTESIAN_POINT ( 'NONE',  ( 50.00000000000000000, 6.123233995736766085E-15, 1.100000000000000089 ) ) ;
#61 = DIRECTION ( 'NONE',  ( 0.000000000000000000, 0.000000000000000000, 1.000000000000000000 ) ) ;
#62 = AXIS2_PLACEMENT_3D ( 'NONE', #1, #61, #115 ) ;
#63 =( NAMED_UNIT ( * ) SI_UNIT ( $, .STERADIAN. ) SOLID_ANGLE_UNIT ( ) );
#64 = ADVANCED_FACE ( 'NONE', ( #53 ), #10, .T. ) ;
#65 = EDGE_LOOP ( 'NONE', ( #131, #52 ) ) ;
#66 = ORIENTED_EDGE ( 'NONE', *, *, #138, .T. ) ;
#67 = AXIS2_PLACEMENT_3D ( 'NONE', #94, #72, #134 ) ;
#68 = PRODUCT_DEFINITION_FORMATION_WITH_SPECIFIED_SOURCE ( 'ANY', '', #49, .NOT_KNOWN. ) ;
#69 = FILL_AREA_STYLE ('',( #97 ) ) ;
#70 = EDGE_CURVE ( 'NONE', #114, #23, #16, .T. ) ;
#71 =( LENGTH_UNIT ( ) NAMED_UNIT ( * ) SI_UNIT ( .MILLI., .METRE. ) );
#72 = DIRECTION ( 'NONE',  ( 0.000000000000000000, 0.000000000000000000, 1.000000000000000000 ) ) ;
#73 = CARTESIAN_POINT ( 'NONE',  ( 0.000000000000000000, 0.000000000000000000, 0.000000000000000000 ) ) ;
#74 = CARTESIAN_POINT ( 'NONE',  ( -50.00000000000000000, 0.000000000000000000, 1.100000000000000089 ) ) ;
#75 =( LENGTH_UNIT ( ) NAMED_UNIT ( * ) SI_UNIT ( .MILLI., .METRE. ) );
#76 = DIRECTION ( 'NONE',  ( -1.000000000000000000, 0.000000000000000000, 0.000000000000000000 ) ) ;
#77 = FACE_OUTER_BOUND ( 'NONE', #30, .T. ) ;
#78 = CARTESIAN_POINT ( 'NONE',  ( 0.000000000000000000, 0.000000000000000000, 0.000000000000000000 ) ) ;
#79 = DIRECTION ( 'NONE',  ( 1.000000000000000000, 0.000000000000000000, 0.000000000000000000 ) ) ;
#80 = COLOUR_RGB ( '',0.7921568627450980005, 0.8196078431372548767, 0.9333333333333333481 ) ;
#81 = AXIS2_PLACEMENT_3D ( 'NONE', #73, #106, #79 ) ;
#82 = FILL_AREA_STYLE ('',( #6 ) ) ;
#83 = MANIFOLD_SOLID_BREP ( 'Boss-Extrude1', #8 ) ;
#84 = DIRECTION ( 'NONE',  ( -1.000000000000000000, 0.000000000000000000, 0.000000000000000000 ) ) ;
#85 = ORIENTED_EDGE ( 'NONE', *, *, #138, .F. ) ;
#86 = PRODUCT_DEFINITION ( 'UNKNOWN', '', #68, #121 ) ;
#87 = PLANE ( 'NONE',  #135 ) ;
#88 = SURFACE_STYLE_USAGE ( .BOTH. , #122 ) ;
#89 = AXIS2_PLACEMENT_3D ( 'NONE', #105, #3, #56 ) ;
#90 = STYLED_ITEM ( 'NONE', ( #137 ), #129 ) ;
#91 =( GEOMETRIC_REPRESENTATION_CONTEXT ( 3 ) GLOBAL_UNCERTAINTY_ASSIGNED_CONTEXT ( ( #58 ) ) GLOBAL_UNIT_ASSIGNED_CONTEXT ( ( #71, #5, #63 ) ) REPRESENTATION_CONTEXT ( 'NONE', 'WORKASPACE' ) );
#92 = EDGE_LOOP ( 'NONE', ( #55, #139 ) ) ;
#93 = CYLINDRICAL_SURFACE ( 'NONE', #37, 50.00000000000000000 ) ;
#94 = CARTESIAN_POINT ( 'NONE',  ( 0.000000000000000000, 0.000000000000000000, 0.000000000000000000 ) ) ;
#95 = CARTESIAN_POINT ( 'NONE',  ( 50.00000000000000000, 6.123233995736766085E-15, 1.100000000000000089 ) ) ;
#96 = SURFACE_STYLE_FILL_AREA ( #69 ) ;
#97 = FILL_AREA_STYLE_COLOUR ( '', #80 ) ;
#98 = PRESENTATION_LAYER_ASSIGNMENT (  '', '', ( #90 ) ) ;
#99 = DIRECTION ( 'NONE',  ( -0.000000000000000000, -0.000000000000000000, -1.000000000000000000 ) ) ;
#100 = ADVANCED_FACE ( 'NONE', ( #44 ), #107, .F. ) ;
#101 = DIRECTION ( 'NONE',  ( 0.000000000000000000, 0.000000000000000000, 1.000000000000000000 ) ) ;
#102 = ORIENTED_EDGE ( 'NONE', *, *, #111, .T. ) ;
#103 = MECHANICAL_DESIGN_GEOMETRIC_PRESENTATION_REPRESENTATION (  '', ( #90 ), #38 ) ;
#104 = DIRECTION ( 'NONE',  ( 0.000000000000000000, 0.000000000000000000, 1.000000000000000000 ) ) ;
#105 = CARTESIAN_POINT ( 'NONE',  ( 0.000000000000000000, 0.000000000000000000, 1.100000000000000089 ) ) ;
#106 = DIRECTION ( 'NONE',  ( 0.000000000000000000, 0.000000000000000000, 1.000000000000000000 ) ) ;
#107 = PLANE ( 'NONE',  #62 ) ;
#108 = EDGE_CURVE ( 'NONE', #130, #125, #59, .T. ) ;
#109 = SHAPE_DEFINITION_REPRESENTATION ( #18, #129 ) ;
#110 = AXIS2_PLACEMENT_3D ( 'NONE', #78, #119, #28 ) ;
#111 = EDGE_CURVE ( 'NONE', #23, #114, #42, .T. ) ;
#112 = CARTESIAN_POINT ( 'NONE',  ( 50.00000000000000000, 6.123233995736766085E-15, 0.000000000000000000 ) ) ;
#113 =( GEOMETRIC_REPRESENTATION_CONTEXT ( 3 ) GLOBAL_UNCERTAINTY_ASSIGNED_CONTEXT ( ( #29 ) ) GLOBAL_UNIT_ASSIGNED_CONTEXT ( ( #13, #133, #27 ) ) REPRESENTATION_CONTEXT ( 'NONE', 'WORKASPACE' ) );
#114 = VERTEX_POINT ( 'NONE', #15 ) ;
#115 = DIRECTION ( 'NONE',  ( 1.000000000000000000, 0.000000000000000000, -0.000000000000000000 ) ) ;
#116 = LINE ( 'NONE', #95, #128 ) ;
#117 = PRESENTATION_STYLE_ASSIGNMENT (( #43 ) ) ;
#118 = SURFACE_STYLE_FILL_AREA ( #82 ) ;
#119 = DIRECTION ( 'NONE',  ( 0.000000000000000000, 0.000000000000000000, 1.000000000000000000 ) ) ;
#120 = APPLICATION_PROTOCOL_DEFINITION ( 'draft international standard', 'automotive_design', 1998, #14 ) ;
#121 = PRODUCT_DEFINITION_CONTEXT ( 'detailed design', #22, 'design' ) ;
#122 = SURFACE_SIDE_STYLE ('',( #118 ) ) ;
#123 = PRODUCT_CONTEXT ( 'NONE', #14, 'mechanical' ) ;
#124 = ADVANCED_FACE ( 'NONE', ( #57 ), #87, .T. ) ;
#125 = VERTEX_POINT ( 'NONE', #60 ) ;
#126 = PRESENTATION_LAYER_ASSIGNMENT (  '', '', ( #48 ) ) ;
#127 = CARTESIAN_POINT ( 'NONE',  ( 0.000000000000000000, 0.000000000000000000, 1.100000000000000089 ) ) ;
#128 = VECTOR ( 'NONE', #132, 1000.000000000000000 ) ;
#129 = ADVANCED_BREP_SHAPE_REPRESENTATION ( '21239', ( #83, #81 ), #91 ) ;
#130 = VERTEX_POINT ( 'NONE', #74 ) ;
#131 = ORIENTED_EDGE ( 'NONE', *, *, #108, .T. ) ;
#132 = DIRECTION ( 'NONE',  ( -0.000000000000000000, -0.000000000000000000, -1.000000000000000000 ) ) ;
#133 =( NAMED_UNIT ( * ) PLANE_ANGLE_UNIT ( ) SI_UNIT ( $, .RADIAN. ) );
#134 = DIRECTION ( 'NONE',  ( 1.000000000000000000, 0.000000000000000000, 0.000000000000000000 ) ) ;
#135 = AXIS2_PLACEMENT_3D ( 'NONE', #25, #104, #26 ) ;
#136 = UNCERTAINTY_MEASURE_WITH_UNIT (LENGTH_MEASURE( 1.000000000000000082E-05 ), #75, 'distance_accuracy_value', 'NONE');
#137 = PRESENTATION_STYLE_ASSIGNMENT (( #88 ) ) ;
#138 = EDGE_CURVE ( 'NONE', #125, #23, #116, .T. ) ;
#139 = ORIENTED_EDGE ( 'NONE', *, *, #111, .F. ) ;
#140 = DIRECTION ( 'NONE',  ( -0.000000000000000000, -0.000000000000000000, -1.000000000000000000 ) ) ;
ENDSEC;
END-ISO-10303-21;
