ISO-10303-21;
HEADER;
FILE_DESCRIPTION (( 'STEP AP203' ),
    '1' );
FILE_NAME ('Web Model 30648_30773.step',
    '2017-04-29T14:34:49',
    ( '' ),
    ( '' ),
    'SwSTEP 2.0',
    'SolidWorks 2016',
    '' );
FILE_SCHEMA (( 'CONFIG_CONTROL_DESIGN' ));
ENDSEC;

DATA;
#1 = DIRECTION ( 'NONE',  ( 0.0000000000000000000, 0.0000000000000000000, 1.000000000000000000 ) ) ;
#2 = CC_DESIGN_PERSON_AND_ORGANIZATION_ASSIGNMENT ( #137, #4, ( #153 ) ) ;
#3 = DIRECTION ( 'NONE',  ( 0.0000000000000000000, 0.0000000000000000000, 1.000000000000000000 ) ) ;
#4 = PERSON_AND_ORGANIZATION_ROLE ( 'creator' ) ;
#5 = ORIENTED_EDGE ( 'NONE', *, *, #131, .T. ) ;
#6 = DESIGN_CONTEXT ( 'detailed design', #133, 'design' ) ;
#7 = APPROVAL_DATE_TIME ( #11, #118 ) ;
#8 = VERTEX_POINT ( 'NONE', #144 ) ;
#9 = PERSON_AND_ORGANIZATION ( #41, #84 ) ;
#10 = ADVANCED_FACE ( 'NONE', ( #77 ), #43, .F. ) ;
#11 = DATE_AND_TIME ( #98, #99 ) ;
#12 = CC_DESIGN_PERSON_AND_ORGANIZATION_ASSIGNMENT ( #136, #105, ( #153 ) ) ;
#13 = DIRECTION ( 'NONE',  ( -1.000000000000000000, 0.0000000000000000000, 0.0000000000000000000 ) ) ;
#14 = AXIS2_PLACEMENT_3D ( 'NONE', #157, #132, #21 ) ;
#15 = COORDINATED_UNIVERSAL_TIME_OFFSET ( 5, 0, .BEHIND. ) ;
#16 = ORIENTED_EDGE ( 'NONE', *, *, #156, .F. ) ;
#17 = CARTESIAN_POINT ( 'NONE',  ( 0.0000000000000000000, 0.0000000000000000000, 3.000000000000000000 ) ) ;
#18 = DIRECTION ( 'NONE',  ( 1.000000000000000000, 0.0000000000000000000, 0.0000000000000000000 ) ) ;
#19 = SECURITY_CLASSIFICATION_LEVEL ( 'unclassified' ) ;
#20 = LOCAL_TIME ( 10, 34, 49.00000000000000000, #15 ) ;
#21 = DIRECTION ( 'NONE',  ( 1.000000000000000000, 0.0000000000000000000, -0.0000000000000000000 ) ) ;
#22 = MANIFOLD_SOLID_BREP ( 'Extrude1', #48 ) ;
#23 = PERSON_AND_ORGANIZATION ( #41, #84 ) ;
#24 = SECURITY_CLASSIFICATION ( '', '', #19 ) ;
#25 = AXIS2_PLACEMENT_3D ( 'NONE', #91, #1, #103 ) ;
#26 = DATE_AND_TIME ( #28, #20 ) ;
#27 = FACE_OUTER_BOUND ( 'NONE', #175, .T. ) ;
#28 = CALENDAR_DATE ( 2017, 29, 4 ) ;
#29 = LINE ( 'NONE', #89, #111 ) ;
#30 = DIRECTION ( 'NONE',  ( -0.0000000000000000000, -0.0000000000000000000, -1.000000000000000000 ) ) ;
#31 = CC_DESIGN_PERSON_AND_ORGANIZATION_ASSIGNMENT ( #59, #116, ( #24 ) ) ;
#32 = CARTESIAN_POINT ( 'NONE',  ( 0.0000000000000000000, 0.0000000000000000000, 0.0000000000000000000 ) ) ;
#33 = PERSON_AND_ORGANIZATION_ROLE ( 'design_owner' ) ;
#34 = AXIS2_PLACEMENT_3D ( 'NONE', #17, #159, #141 ) ;
#35 = DATE_TIME_ROLE ( 'classification_date' ) ;
#36 = AXIS2_PLACEMENT_3D ( 'NONE', #130, #45, #143 ) ;
#37 = EDGE_LOOP ( 'NONE', ( #147, #125, #5, #76 ) ) ;
#38 = CC_DESIGN_DATE_AND_TIME_ASSIGNMENT ( #66, #35, ( #24 ) ) ;
#39 = VECTOR ( 'NONE', #30, 1000.000000000000000 ) ;
#40 = AXIS2_PLACEMENT_3D ( 'NONE', #142, #61, #152 ) ;
#41 = PERSON ( 'UNSPECIFIED', 'UNSPECIFIED', 'UNSPECIFIED', ('UNSPECIFIED'), ('UNSPECIFIED'), ('UNSPECIFIED') ) ;
#42 = AXIS2_PLACEMENT_3D ( 'NONE', #62, #129, #112 ) ;
#43 = PLANE ( 'NONE',  #14 ) ;
#44 = CIRCLE ( 'NONE', #36, 12.50000000000000000 ) ;
#45 = DIRECTION ( 'NONE',  ( 0.0000000000000000000, 0.0000000000000000000, 1.000000000000000000 ) ) ;
#46 = APPLICATION_PROTOCOL_DEFINITION ( 'international standard', 'config_control_design', 1994, #133 ) ;
#47 = APPROVAL_ROLE ( '' ) ;
#48 = CLOSED_SHELL ( 'NONE', ( #163, #72, #69, #10 ) ) ;
#49 = ADVANCED_BREP_SHAPE_REPRESENTATION ( 'Web Model 30648_30773', ( #22, #97 ), #57 ) ;
#50 = CYLINDRICAL_SURFACE ( 'NONE', #42, 12.50000000000000000 ) ;
#51 = COORDINATED_UNIVERSAL_TIME_OFFSET ( 5, 0, .BEHIND. ) ;
#52 = APPROVAL ( #135, 'UNSPECIFIED' ) ;
#53 = ORIENTED_EDGE ( 'NONE', *, *, #167, .F. ) ;
#54 = AXIS2_PLACEMENT_3D ( 'NONE', #171, #170, #13 ) ;
#55 = LOCAL_TIME ( 10, 34, 49.00000000000000000, #51 ) ;
#56 = EDGE_LOOP ( 'NONE', ( #95, #160 ) ) ;
#57 =( GEOMETRIC_REPRESENTATION_CONTEXT ( 3 ) GLOBAL_UNCERTAINTY_ASSIGNED_CONTEXT ( ( #85 ) ) GLOBAL_UNIT_ASSIGNED_CONTEXT ( ( #64, #155, #81 ) ) REPRESENTATION_CONTEXT ( 'NONE', 'WORKASPACE' ) );
#58 = EDGE_LOOP ( 'NONE', ( #53, #151 ) ) ;
#59 = PERSON_AND_ORGANIZATION ( #41, #84 ) ;
#60 = CALENDAR_DATE ( 2017, 29, 4 ) ;
#61 = DIRECTION ( 'NONE',  ( 0.0000000000000000000, 0.0000000000000000000, 1.000000000000000000 ) ) ;
#62 = CARTESIAN_POINT ( 'NONE',  ( 0.0000000000000000000, 0.0000000000000000000, 3.000000000000000000 ) ) ;
#63 = CC_DESIGN_APPROVAL ( #52, ( #24 ) ) ;
#64 =( LENGTH_UNIT ( ) NAMED_UNIT ( * ) SI_UNIT ( .MILLI., .METRE. ) );
#65 = APPROVAL_ROLE ( '' ) ;
#66 = DATE_AND_TIME ( #60, #55 ) ;
#67 = AXIS2_PLACEMENT_3D ( 'NONE', #154, #79, #172 ) ;
#68 = COORDINATED_UNIVERSAL_TIME_OFFSET ( 5, 0, .BEHIND. ) ;
#69 = ADVANCED_FACE ( 'NONE', ( #87 ), #113, .T. ) ;
#70 = ORIENTED_EDGE ( 'NONE', *, *, #149, .F. ) ;
#71 = APPROVAL_PERSON_ORGANIZATION ( #73, #52, #47 ) ;
#72 = ADVANCED_FACE ( 'NONE', ( #27 ), #107, .T. ) ;
#73 = PERSON_AND_ORGANIZATION ( #41, #84 ) ;
#74 = CARTESIAN_POINT ( 'NONE',  ( -12.50000000000000000, 0.0000000000000000000, 0.0000000000000000000 ) ) ;
#75 = CC_DESIGN_SECURITY_CLASSIFICATION ( #24, ( #153 ) ) ;
#76 = ORIENTED_EDGE ( 'NONE', *, *, #121, .F. ) ;
#77 = FACE_OUTER_BOUND ( 'NONE', #58, .T. ) ;
#78 = CARTESIAN_POINT ( 'NONE',  ( 12.50000000000000000, 1.530808498934191500E-015, 3.000000000000000000 ) ) ;
#79 = DIRECTION ( 'NONE',  ( 0.0000000000000000000, 0.0000000000000000000, 1.000000000000000000 ) ) ;
#80 = ORIENTED_EDGE ( 'NONE', *, *, #167, .T. ) ;
#81 =( NAMED_UNIT ( * ) SI_UNIT ( $, .STERADIAN. ) SOLID_ANGLE_UNIT ( ) );
#82 = DATE_TIME_ROLE ( 'creation_date' ) ;
#83 = PRODUCT_RELATED_PRODUCT_CATEGORY ( 'detail', '', ( #101 ) ) ;
#84 = ORGANIZATION ( 'UNSPECIFIED', 'UNSPECIFIED', '' ) ;
#85 = UNCERTAINTY_MEASURE_WITH_UNIT (LENGTH_MEASURE( 1.000000000000000100E-005 ), #64, 'distance_accuracy_value', 'NONE');
#86 = PERSON_AND_ORGANIZATION ( #41, #84 ) ;
#87 = FACE_OUTER_BOUND ( 'NONE', #56, .T. ) ;
#88 = SHAPE_DEFINITION_REPRESENTATION ( #150, #49 ) ;
#89 = CARTESIAN_POINT ( 'NONE',  ( -12.50000000000000000, 0.0000000000000000000, 3.000000000000000000 ) ) ;
#90 = VERTEX_POINT ( 'NONE', #166 ) ;
#91 = CARTESIAN_POINT ( 'NONE',  ( 0.0000000000000000000, 0.0000000000000000000, 3.000000000000000000 ) ) ;
#92 = PERSON_AND_ORGANIZATION ( #41, #84 ) ;
#93 = APPLICATION_PROTOCOL_DEFINITION ( 'international standard', 'config_control_design', 1994, #104 ) ;
#94 = APPROVAL_ROLE ( '' ) ;
#95 = ORIENTED_EDGE ( 'NONE', *, *, #156, .T. ) ;
#96 = APPROVAL_PERSON_ORGANIZATION ( #92, #118, #65 ) ;
#97 = AXIS2_PLACEMENT_3D ( 'NONE', #32, #3, #18 ) ;
#98 = CALENDAR_DATE ( 2017, 29, 4 ) ;
#99 = LOCAL_TIME ( 10, 34, 49.00000000000000000, #100 ) ;
#100 = COORDINATED_UNIVERSAL_TIME_OFFSET ( 5, 0, .BEHIND. ) ;
#101 = PRODUCT ( 'Web Model 30648_30773', 'Web Model 30648_30773', '', ( #115 ) ) ;
#102 = CC_DESIGN_PERSON_AND_ORGANIZATION_ASSIGNMENT ( #86, #33, ( #101 ) ) ;
#103 = DIRECTION ( 'NONE',  ( 1.000000000000000000, 0.0000000000000000000, 0.0000000000000000000 ) ) ;
#104 = APPLICATION_CONTEXT ( 'configuration controlled 3d designs of mechanical parts and assemblies' ) ;
#105 = PERSON_AND_ORGANIZATION_ROLE ( 'design_supplier' ) ;
#106 = CIRCLE ( 'NONE', #25, 12.50000000000000000 ) ;
#107 = CYLINDRICAL_SURFACE ( 'NONE', #54, 12.50000000000000000 ) ;
#108 = PRODUCT_DEFINITION ( 'UNKNOWN', '', #153, #6 ) ;
#109 = CARTESIAN_POINT ( 'NONE',  ( 12.50000000000000000, 1.530808498934191500E-015, 3.000000000000000000 ) ) ;
#110 = VERTEX_POINT ( 'NONE', #109 ) ;
#111 = VECTOR ( 'NONE', #124, 1000.000000000000000 ) ;
#112 = DIRECTION ( 'NONE',  ( -1.000000000000000000, 0.0000000000000000000, 0.0000000000000000000 ) ) ;
#113 = PLANE ( 'NONE',  #34 ) ;
#114 = CIRCLE ( 'NONE', #40, 12.50000000000000000 ) ;
#115 = MECHANICAL_CONTEXT ( 'NONE', #104, 'mechanical' ) ;
#116 = PERSON_AND_ORGANIZATION_ROLE ( 'classification_officer' ) ;
#117 = FACE_OUTER_BOUND ( 'NONE', #37, .T. ) ;
#118 = APPROVAL ( #145, 'UNSPECIFIED' ) ;
#119 = LINE ( 'NONE', #78, #39 ) ;
#120 = COORDINATED_UNIVERSAL_TIME_OFFSET ( 5, 0, .BEHIND. ) ;
#121 = EDGE_CURVE ( 'NONE', #90, #146, #29, .T. ) ;
#122 = CIRCLE ( 'NONE', #67, 12.50000000000000000 ) ;
#123 = LOCAL_TIME ( 10, 34, 49.00000000000000000, #120 ) ;
#124 = DIRECTION ( 'NONE',  ( -0.0000000000000000000, -0.0000000000000000000, -1.000000000000000000 ) ) ;
#125 = ORIENTED_EDGE ( 'NONE', *, *, #149, .T. ) ;
#126 = APPROVAL_PERSON_ORGANIZATION ( #23, #165, #94 ) ;
#127 = CALENDAR_DATE ( 2017, 29, 4 ) ;
#128 = CC_DESIGN_APPROVAL ( #118, ( #108 ) ) ;
#129 = DIRECTION ( 'NONE',  ( -0.0000000000000000000, -0.0000000000000000000, -1.000000000000000000 ) ) ;
#130 = CARTESIAN_POINT ( 'NONE',  ( 0.0000000000000000000, 0.0000000000000000000, 0.0000000000000000000 ) ) ;
#131 = EDGE_CURVE ( 'NONE', #8, #146, #114, .T. ) ;
#132 = DIRECTION ( 'NONE',  ( 0.0000000000000000000, 0.0000000000000000000, 1.000000000000000000 ) ) ;
#133 = APPLICATION_CONTEXT ( 'configuration controlled 3d designs of mechanical parts and assemblies' ) ;
#134 = DATE_AND_TIME ( #127, #123 ) ;
#135 = APPROVAL_STATUS ( 'not_yet_approved' ) ;
#136 = PERSON_AND_ORGANIZATION ( #41, #84 ) ;
#137 = PERSON_AND_ORGANIZATION ( #41, #84 ) ;
#138 = APPROVAL_DATE_TIME ( #134, #165 ) ;
#139 = CC_DESIGN_PERSON_AND_ORGANIZATION_ASSIGNMENT ( #9, #158, ( #108 ) ) ;
#140 = EDGE_CURVE ( 'NONE', #110, #90, #106, .T. ) ;
#141 = DIRECTION ( 'NONE',  ( 1.000000000000000000, 0.0000000000000000000, -0.0000000000000000000 ) ) ;
#142 = CARTESIAN_POINT ( 'NONE',  ( 0.0000000000000000000, 0.0000000000000000000, 0.0000000000000000000 ) ) ;
#143 = DIRECTION ( 'NONE',  ( 1.000000000000000000, 0.0000000000000000000, 0.0000000000000000000 ) ) ;
#144 = CARTESIAN_POINT ( 'NONE',  ( 12.50000000000000000, 1.530808498934191500E-015, 0.0000000000000000000 ) ) ;
#145 = APPROVAL_STATUS ( 'not_yet_approved' ) ;
#146 = VERTEX_POINT ( 'NONE', #74 ) ;
#147 = ORIENTED_EDGE ( 'NONE', *, *, #140, .F. ) ;
#148 = CC_DESIGN_DATE_AND_TIME_ASSIGNMENT ( #26, #82, ( #108 ) ) ;
#149 = EDGE_CURVE ( 'NONE', #110, #8, #119, .T. ) ;
#150 = PRODUCT_DEFINITION_SHAPE ( 'NONE', 'NONE',  #108 ) ;
#151 = ORIENTED_EDGE ( 'NONE', *, *, #131, .F. ) ;
#152 = DIRECTION ( 'NONE',  ( 1.000000000000000000, 0.0000000000000000000, 0.0000000000000000000 ) ) ;
#153 = PRODUCT_DEFINITION_FORMATION_WITH_SPECIFIED_SOURCE ( 'ANY', '', #101, .NOT_KNOWN. ) ;
#154 = CARTESIAN_POINT ( 'NONE',  ( 0.0000000000000000000, 0.0000000000000000000, 3.000000000000000000 ) ) ;
#155 =( NAMED_UNIT ( * ) PLANE_ANGLE_UNIT ( ) SI_UNIT ( $, .RADIAN. ) );
#156 = EDGE_CURVE ( 'NONE', #90, #110, #122, .T. ) ;
#157 = CARTESIAN_POINT ( 'NONE',  ( 0.0000000000000000000, 0.0000000000000000000, 0.0000000000000000000 ) ) ;
#158 = PERSON_AND_ORGANIZATION_ROLE ( 'creator' ) ;
#159 = DIRECTION ( 'NONE',  ( 0.0000000000000000000, 0.0000000000000000000, 1.000000000000000000 ) ) ;
#160 = ORIENTED_EDGE ( 'NONE', *, *, #140, .T. ) ;
#161 = CALENDAR_DATE ( 2017, 29, 4 ) ;
#162 = DATE_AND_TIME ( #161, #164 ) ;
#163 = ADVANCED_FACE ( 'NONE', ( #117 ), #50, .T. ) ;
#164 = LOCAL_TIME ( 10, 34, 49.00000000000000000, #68 ) ;
#165 = APPROVAL ( #173, 'UNSPECIFIED' ) ;
#166 = CARTESIAN_POINT ( 'NONE',  ( -12.50000000000000000, 0.0000000000000000000, 3.000000000000000000 ) ) ;
#167 = EDGE_CURVE ( 'NONE', #146, #8, #44, .T. ) ;
#168 = ORIENTED_EDGE ( 'NONE', *, *, #121, .T. ) ;
#169 = APPROVAL_DATE_TIME ( #162, #52 ) ;
#170 = DIRECTION ( 'NONE',  ( -0.0000000000000000000, -0.0000000000000000000, -1.000000000000000000 ) ) ;
#171 = CARTESIAN_POINT ( 'NONE',  ( 0.0000000000000000000, 0.0000000000000000000, 3.000000000000000000 ) ) ;
#172 = DIRECTION ( 'NONE',  ( 1.000000000000000000, 0.0000000000000000000, 0.0000000000000000000 ) ) ;
#173 = APPROVAL_STATUS ( 'not_yet_approved' ) ;
#174 = CC_DESIGN_APPROVAL ( #165, ( #153 ) ) ;
#175 = EDGE_LOOP ( 'NONE', ( #70, #16, #168, #80 ) ) ;
ENDSEC;
END-ISO-10303-21;
