ISO-10303-21;
HEADER;
FILE_DESCRIPTION (( 'STEP AP203' ),
    '1' );
FILE_NAME ('4940-E0W.STEP',
    '2015-11-16T21:55:33',
    ( 'admin' ),
    ( '' ),
    'SwSTEP 2.0',
    'SolidWorks 2014',
    '' );
FILE_SCHEMA (( 'CONFIG_CONTROL_DESIGN' ));
ENDSEC;

DATA;
#1 = CARTESIAN_POINT ( 'NONE',  ( -0.06889763779527564900, 4.761176039992142000E-017, -3.913900831382039300E-031 ) ) ;
#2 = AXIS2_PLACEMENT_3D ( 'NONE', #19, #237, #291 ) ;
#3 = DIRECTION ( 'NONE',  ( 1.212054600120109100E-016, -1.000000000000000000, 0.0000000000000000000 ) ) ;
#4 = CONICAL_SURFACE ( 'NONE', #126, 0.4999999999999998300, 0.7853981633974557200 ) ;
#5 = ORIENTED_EDGE ( 'NONE', *, *, #258, .T. ) ;
#6 = DIRECTION ( 'NONE',  ( -1.195183497228115500E-016, 1.000000000000000000, 0.0000000000000000000 ) ) ;
#7 = CARTESIAN_POINT ( 'NONE',  ( -0.04159004378543529300, 0.4999999999999997800, 0.0000000000000000000 ) ) ;
#8 = VECTOR ( 'NONE', #159, 39.37007874015748100 ) ;
#9 = ORIENTED_EDGE ( 'NONE', *, *, #74, .F. ) ;
#10 = EDGE_CURVE ( 'NONE', #255, #230, #20, .T. ) ;
#11 = CC_DESIGN_DATE_AND_TIME_ASSIGNMENT ( #51, #72, ( #265 ) ) ;
#12 = ADVANCED_FACE ( 'NONE', ( #48 ), #208, .T. ) ;
#13 = FACE_OUTER_BOUND ( 'NONE', #171, .T. ) ;
#14 = DIRECTION ( 'NONE',  ( -1.000000000000000000, -1.224646799147353900E-016, -0.0000000000000000000 ) ) ;
#15 = APPLICATION_CONTEXT ( 'configuration controlled 3d designs of mechanical parts and assemblies' ) ;
#16 = AXIS2_PLACEMENT_3D ( 'NONE', #157, #49, #3 ) ;
#17 = LOCAL_TIME ( 16, 55, 33.00000000000000000, #216 ) ;
#18 = FACE_OUTER_BOUND ( 'NONE', #196, .T. ) ;
#19 = CARTESIAN_POINT ( 'NONE',  ( 0.1124738658485555100, -4.227521157948498200E-017, 0.0000000000000000000 ) ) ;
#20 = CIRCLE ( 'NONE', #313, 0.4930402875867464000 ) ;
#21 = AXIS2_PLACEMENT_3D ( 'NONE', #242, #14, #254 ) ;
#22 = CARTESIAN_POINT ( 'NONE',  ( 5.836613296306028400, 6.584180515979884500E-016, 0.0000000000000000000 ) ) ;
#23 = EDGE_CURVE ( 'NONE', #145, #100, #301, .T. ) ;
#24 = PRODUCT_DEFINITION_FORMATION_WITH_SPECIFIED_SOURCE ( 'ANY', '', #92, .NOT_KNOWN. ) ;
#25 = EDGE_LOOP ( 'NONE', ( #70, #192, #9, #53 ) ) ;
#26 = CARTESIAN_POINT ( 'NONE',  ( 2.879921259842519900, 1.161244809348977000E-015, -5.646117586432442800E-030 ) ) ;
#27 = DIRECTION ( 'NONE',  ( -1.000000000000000000, -1.224646799147353900E-016, -0.0000000000000000000 ) ) ;
#28 = CARTESIAN_POINT ( 'NONE',  ( 0.1124738658485554400, 0.4930402875867465100, 6.080618048087381200E-017 ) ) ;
#29 = LINE ( 'NONE', #98, #150 ) ;
#30 = ORIENTED_EDGE ( 'NONE', *, *, #10, .F. ) ;
#31 = AXIS2_PLACEMENT_3D ( 'NONE', #178, #271, #219 ) ;
#32 = ORIENTED_EDGE ( 'NONE', *, *, #36, .T. ) ;
#33 = AXIS2_PLACEMENT_3D ( 'NONE', #38, #149, #198 ) ;
#34 = CIRCLE ( 'NONE', #68, 2.811023622047244400 ) ;
#35 = ORIENTED_EDGE ( 'NONE', *, *, #225, .F. ) ;
#36 = EDGE_CURVE ( 'NONE', #100, #145, #52, .T. ) ;
#37 = APPROVAL ( #213, 'UNSPECIFIED' ) ;
#38 = CARTESIAN_POINT ( 'NONE',  ( 0.1124738658485555100, -4.227521157948498200E-017, 0.0000000000000000000 ) ) ;
#39 = EDGE_LOOP ( 'NONE', ( #330, #261, #243 ) ) ;
#40 =( LENGTH_UNIT ( ) NAMED_UNIT ( * ) SI_UNIT ( $, .METRE. ) );
#41 = DIRECTION ( 'NONE',  ( -0.7071067811865545700, 0.7071067811865404700, 8.659560562354847800E-017 ) ) ;
#42 = VERTEX_POINT ( 'NONE', #124 ) ;
#43 = CIRCLE ( 'NONE', #102, 0.4999999999999999400 ) ;
#44 = ORIENTED_EDGE ( 'NONE', *, *, #54, .T. ) ;
#45 = DIRECTION ( 'NONE',  ( -1.000000000000000000, -1.224646799147353900E-016, -0.0000000000000000000 ) ) ;
#46 = AXIS2_PLACEMENT_3D ( 'NONE', #121, #27, #288 ) ;
#47 = DIRECTION ( 'NONE',  ( -8.551662891793922500E-031, 6.982962677686266700E-015, 1.000000000000000000 ) ) ;
#48 = FACE_OUTER_BOUND ( 'NONE', #251, .T. ) ;
#49 = DIRECTION ( 'NONE',  ( -1.000000000000000000, -1.224646799147353900E-016, -0.0000000000000000000 ) ) ;
#50 = AXIS2_PLACEMENT_3D ( 'NONE', #249, #60, #286 ) ;
#51 = DATE_AND_TIME ( #211, #191 ) ;
#52 = CIRCLE ( 'NONE', #33, 0.4930402875867466200 ) ;
#53 = ORIENTED_EDGE ( 'NONE', *, *, #179, .F. ) ;
#54 = EDGE_CURVE ( 'NONE', #145, #264, #316, .T. ) ;
#55 = ORIENTED_EDGE ( 'NONE', *, *, #193, .T. ) ;
#56 = CC_DESIGN_APPROVAL ( #37, ( #24 ) ) ;
#57 = DIRECTION ( 'NONE',  ( -1.000000000000000000, -1.224646799147353900E-016, -0.0000000000000000000 ) ) ;
#58 = PRODUCT_DEFINITION_SHAPE ( 'NONE', 'NONE',  #265 ) ;
#59 = CARTESIAN_POINT ( 'NONE',  ( -0.04159004378543517500, -0.4999999999999999400, 6.123233995736764800E-017 ) ) ;
#60 = DIRECTION ( 'NONE',  ( -1.000000000000000000, -1.224646799147353900E-016, -0.0000000000000000000 ) ) ;
#61 = CC_DESIGN_DATE_AND_TIME_ASSIGNMENT ( #274, #83, ( #113 ) ) ;
#62 = COORDINATED_UNIVERSAL_TIME_OFFSET ( 5, 0, .BEHIND. ) ;
#63 = AXIS2_PLACEMENT_3D ( 'NONE', #106, #109, #140 ) ;
#64 = CALENDAR_DATE ( 2015, 16, 11 ) ;
#65 = LINE ( 'NONE', #307, #8 ) ;
#66 = ORIENTED_EDGE ( 'NONE', *, *, #112, .F. ) ;
#67 = DIRECTION ( 'NONE',  ( 0.0000000000000000000, 0.0000000000000000000, -1.000000000000000000 ) ) ;
#68 = AXIS2_PLACEMENT_3D ( 'NONE', #91, #259, #80 ) ;
#69 = ORIENTED_EDGE ( 'NONE', *, *, #287, .T. ) ;
#70 = ORIENTED_EDGE ( 'NONE', *, *, #112, .T. ) ;
#71 = DIRECTION ( 'NONE',  ( 1.000000000000000000, 1.224646799147353900E-016, 0.0000000000000000000 ) ) ;
#72 = DATE_TIME_ROLE ( 'creation_date' ) ;
#73 = CLOSED_SHELL ( 'NONE', ( #115, #312, #82, #111, #233, #12, #207, #204, #84, #308 ) ) ;
#74 = EDGE_CURVE ( 'NONE', #292, #180, #128, .T. ) ;
#75 = CC_DESIGN_PERSON_AND_ORGANIZATION_ASSIGNMENT ( #290, #127, ( #24 ) ) ;
#76 = FACE_OUTER_BOUND ( 'NONE', #25, .T. ) ;
#77 = MECHANICAL_CONTEXT ( 'NONE', #284, 'mechanical' ) ;
#78 = DIRECTION ( 'NONE',  ( 1.365923996832131900E-016, -1.000000000000000000, 0.0000000000000000000 ) ) ;
#79 = APPROVAL ( #221, 'UNSPECIFIED' ) ;
#80 = DIRECTION ( 'NONE',  ( 0.0000000000000000000, -1.000000000000000000, 6.860497997771530800E-015 ) ) ;
#81 = AXIS2_PLACEMENT_3D ( 'NONE', #22, #57, #262 ) ;
#82 = ADVANCED_FACE ( 'NONE', ( #76 ), #118, .T. ) ;
#83 = DATE_TIME_ROLE ( 'classification_date' ) ;
#84 = ADVANCED_FACE ( 'NONE', ( #239 ), #147, .T. ) ;
#85 = AXIS2_PLACEMENT_3D ( 'NONE', #263, #226, #199 ) ;
#86 = DIRECTION ( 'NONE',  ( 8.551662891793922500E-031, -6.982962677686266700E-015, -1.000000000000000000 ) ) ;
#87 = DIRECTION ( 'NONE',  ( 1.385205257280124200E-016, -1.000000000000000000, 0.0000000000000000000 ) ) ;
#88 = CALENDAR_DATE ( 2015, 16, 11 ) ;
#89 = CARTESIAN_POINT ( 'NONE',  ( -0.04159004378543517500, -0.4999999999999999400, 6.123233995736764800E-017 ) ) ;
#90 = CONICAL_SURFACE ( 'NONE', #31, 0.4999999999999998300, 0.7853981633974557200 ) ;
#91 = CARTESIAN_POINT ( 'NONE',  ( 2.879921259842519900, 1.161244809348977000E-015, -5.646117586432442800E-030 ) ) ;
#92 = PRODUCT ( '4940-E0W', '4940-E0W', '', ( #77 ) ) ;
#93 = CARTESIAN_POINT ( 'NONE',  ( 5.836613296306028400, -0.003218283617080852700, 0.0000000000000000000 ) ) ;
#94 = EDGE_CURVE ( 'NONE', #145, #108, #34, .T. ) ;
#95 = CC_DESIGN_PERSON_AND_ORGANIZATION_ASSIGNMENT ( #129, #186, ( #24 ) ) ;
#96 = DATE_AND_TIME ( #64, #269 ) ;
#97 = CARTESIAN_POINT ( 'NONE',  ( -0.04854975619868880100, -0.4930402875867486700, 0.0000000000000000000 ) ) ;
#98 = CARTESIAN_POINT ( 'NONE',  ( -0.04159004378543529300, 0.4999999999999997800, 0.0000000000000000000 ) ) ;
#99 = CC_DESIGN_APPROVAL ( #79, ( #113 ) ) ;
#100 = VERTEX_POINT ( 'NONE', #170 ) ;
#101 = CARTESIAN_POINT ( 'NONE',  ( 0.1055141534353019700, 0.4999999999999999400, 6.123233995736766000E-017 ) ) ;
#102 = AXIS2_PLACEMENT_3D ( 'NONE', #296, #279, #297 ) ;
#103 = CARTESIAN_POINT ( 'NONE',  ( 2.879921259842519900, 1.161244809348977000E-015, -5.646117586432442800E-030 ) ) ;
#104 = AXIS2_PLACEMENT_3D ( 'NONE', #195, #234, #105 ) ;
#105 = DIRECTION ( 'NONE',  ( 1.195183497228115500E-016, -1.000000000000000000, 0.0000000000000000000 ) ) ;
#106 = CARTESIAN_POINT ( 'NONE',  ( -0.04159004378543523100, -6.114259895922438300E-017, 0.0000000000000000000 ) ) ;
#107 = ORIENTED_EDGE ( 'NONE', *, *, #272, .T. ) ;
#108 = VERTEX_POINT ( 'NONE', #294 ) ;
#109 = DIRECTION ( 'NONE',  ( -1.000000000000000000, -1.224646799147353900E-016, -0.0000000000000000000 ) ) ;
#110 = CARTESIAN_POINT ( 'NONE',  ( 0.0000000000000000000, 0.0000000000000000000, 0.0000000000000000000 ) ) ;
#111 = ADVANCED_FACE ( 'NONE', ( #168 ), #4, .T. ) ;
#112 = EDGE_CURVE ( 'NONE', #42, #264, #228, .T. ) ;
#113 = SECURITY_CLASSIFICATION ( '', '', #160 ) ;
#114 = EDGE_LOOP ( 'NONE', ( #32, #44, #66, #267 ) ) ;
#115 = ADVANCED_FACE ( 'NONE', ( #13 ), #174, .F. ) ;
#116 = CONICAL_SURFACE ( 'NONE', #143, 0.4930402875867466200, 0.7853981633974385100 ) ;
#117 = PERSON_AND_ORGANIZATION ( #187, #152 ) ;
#118 = CYLINDRICAL_SURFACE ( 'NONE', #104, 0.4999999999999998300 ) ;
#119 = LINE ( 'NONE', #285, #302 ) ;
#120 = ORIENTED_EDGE ( 'NONE', *, *, #153, .F. ) ;
#121 = CARTESIAN_POINT ( 'NONE',  ( -0.06889763779527564900, -6.448681471888103000E-017, 0.0000000000000000000 ) ) ;
#122 = CARTESIAN_POINT ( 'NONE',  ( -0.06889763779527571800, 0.4999999999999997800, 6.123233995736764800E-017 ) ) ;
#123 = CC_DESIGN_SECURITY_CLASSIFICATION ( #113, ( #24 ) ) ;
#124 = CARTESIAN_POINT ( 'NONE',  ( 0.1055141534353021100, -0.5000000000000000000, 0.0000000000000000000 ) ) ;
#125 = AXIS2_PLACEMENT_3D ( 'NONE', #311, #304, #321 ) ;
#126 = AXIS2_PLACEMENT_3D ( 'NONE', #166, #71, #6 ) ;
#127 = PERSON_AND_ORGANIZATION_ROLE ( 'creator' ) ;
#128 = CIRCLE ( 'NONE', #50, 0.4999999999999998300 ) ;
#129 = PERSON_AND_ORGANIZATION ( #187, #152 ) ;
#130 = VECTOR ( 'NONE', #246, 39.37007874015748100 ) ;
#131 = ORIENTED_EDGE ( 'NONE', *, *, #258, .F. ) ;
#132 = COORDINATED_UNIVERSAL_TIME_OFFSET ( 5, 0, .BEHIND. ) ;
#133 = EDGE_CURVE ( 'NONE', #264, #180, #154, .T. ) ;
#134 = CC_DESIGN_PERSON_AND_ORGANIZATION_ASSIGNMENT ( #248, #138, ( #113 ) ) ;
#135 =( NAMED_UNIT ( * ) PLANE_ANGLE_UNIT ( ) SI_UNIT ( $, .RADIAN. ) );
#136 = UNCERTAINTY_MEASURE_WITH_UNIT (LENGTH_MEASURE( 1.000000000000000100E-005 ), #318, 'distance_accuracy_value', 'NONE');
#137 = DIRECTION ( 'NONE',  ( 1.943667760198102900E-016, -1.000000000000000000, 6.982962677686266700E-015 ) ) ;
#138 = PERSON_AND_ORGANIZATION_ROLE ( 'classification_officer' ) ;
#139 = EDGE_LOOP ( 'NONE', ( #289, #185, #184, #320 ) ) ;
#140 = DIRECTION ( 'NONE',  ( 1.195183497228115500E-016, -1.000000000000000000, 0.0000000000000000000 ) ) ;
#141 = APPROVAL_DATE_TIME ( #182, #276 ) ;
#142 = PRODUCT_RELATED_PRODUCT_CATEGORY ( 'detail', '', ( #92 ) ) ;
#143 = AXIS2_PLACEMENT_3D ( 'NONE', #273, #298, #87 ) ;
#144 = FACE_OUTER_BOUND ( 'NONE', #303, .T. ) ;
#145 = VERTEX_POINT ( 'NONE', #28 ) ;
#146 = PERSON_AND_ORGANIZATION_ROLE ( 'design_owner' ) ;
#147 = CONICAL_SURFACE ( 'NONE', #85, 0.4930402875867466200, 0.7853981633974385100 ) ;
#148 = APPROVAL_STATUS ( 'not_yet_approved' ) ;
#149 = DIRECTION ( 'NONE',  ( -1.000000000000000000, -1.224646799147353900E-016, -0.0000000000000000000 ) ) ;
#150 = VECTOR ( 'NONE', #190, 39.37007874015748900 ) ;
#151 = VERTEX_POINT ( 'NONE', #1 ) ;
#152 = ORGANIZATION ( 'UNSPECIFIED', 'UNSPECIFIED', '' ) ;
#153 = EDGE_CURVE ( 'NONE', #255, #292, #275, .T. ) ;
#154 = LINE ( 'NONE', #122, #130 ) ;
#155 = APPROVAL_ROLE ( '' ) ;
#156 = APPROVAL_PERSON_ORGANIZATION ( #280, #79, #155 ) ;
#157 = CARTESIAN_POINT ( 'NONE',  ( -0.04854975619868859300, -6.199491791221205500E-017, 0.0000000000000000000 ) ) ;
#158 = AXIS2_PLACEMENT_3D ( 'NONE', #103, #306, #300 ) ;
#159 = DIRECTION ( 'NONE',  ( -1.000000000000000000, -1.224646799147353900E-016, -0.0000000000000000000 ) ) ;
#160 = SECURITY_CLASSIFICATION_LEVEL ( 'unclassified' ) ;
#161 = CARTESIAN_POINT ( 'NONE',  ( 0.1124738658485554400, 0.4930402875867465100, 6.038002100437997600E-017 ) ) ;
#162 = VECTOR ( 'NONE', #231, 39.37007874015748100 ) ;
#163 = ORIENTED_EDGE ( 'NONE', *, *, #287, .F. ) ;
#164 = EDGE_CURVE ( 'NONE', #100, #108, #212, .T. ) ;
#165 = APPROVAL_DATE_TIME ( #96, #79 ) ;
#166 = CARTESIAN_POINT ( 'NONE',  ( -0.04159004378543523100, -6.114259895922438300E-017, 0.0000000000000000000 ) ) ;
#167 = APPROVAL_PERSON_ORGANIZATION ( #117, #37, #209 ) ;
#168 = FACE_OUTER_BOUND ( 'NONE', #326, .T. ) ;
#169 = CALENDAR_DATE ( 2015, 16, 11 ) ;
#170 = CARTESIAN_POINT ( 'NONE',  ( 0.1124738658485555800, -0.4930402875867466700, 0.0000000000000000000 ) ) ;
#171 = EDGE_LOOP ( 'NONE', ( #175, #253, #324 ) ) ;
#172 =( GEOMETRIC_REPRESENTATION_CONTEXT ( 3 ) GLOBAL_UNCERTAINTY_ASSIGNED_CONTEXT ( ( #136 ) ) GLOBAL_UNIT_ASSIGNED_CONTEXT ( ( #318, #135, #235 ) ) REPRESENTATION_CONTEXT ( 'NONE', 'WORKASPACE' ) );
#173 = APPROVAL_ROLE ( '' ) ;
#174 = SPHERICAL_SURFACE ( 'NONE', #305, 2.811023622047244400 ) ;
#175 = ORIENTED_EDGE ( 'NONE', *, *, #23, .F. ) ;
#176 = CARTESIAN_POINT ( 'NONE',  ( 0.1055141534353020400, -4.312753053247267900E-017, 0.0000000000000000000 ) ) ;
#177 = DIRECTION ( 'NONE',  ( -1.000000000000000000, 0.0000000000000000000, 0.0000000000000000000 ) ) ;
#178 = CARTESIAN_POINT ( 'NONE',  ( -0.04159004378543523100, -6.114259895922438300E-017, 0.0000000000000000000 ) ) ;
#179 = EDGE_CURVE ( 'NONE', #42, #292, #65, .T. ) ;
#180 = VERTEX_POINT ( 'NONE', #7 ) ;
#181 = DIRECTION ( 'NONE',  ( -0.7071067811865542300, -0.7071067811865405800, 0.0000000000000000000 ) ) ;
#182 = DATE_AND_TIME ( #88, #188 ) ;
#183 = TOROIDAL_SURFACE ( 'NONE', #81, 0.003218283617081511100, 5.905511811023623100 ) ;
#184 = ORIENTED_EDGE ( 'NONE', *, *, #245, .T. ) ;
#185 = ORIENTED_EDGE ( 'NONE', *, *, #23, .T. ) ;
#186 = PERSON_AND_ORGANIZATION_ROLE ( 'design_supplier' ) ;
#187 = PERSON ( 'UNSPECIFIED', 'UNSPECIFIED', 'UNSPECIFIED', ('UNSPECIFIED'), ('UNSPECIFIED'), ('UNSPECIFIED') ) ;
#188 = LOCAL_TIME ( 16, 55, 33.00000000000000000, #62 ) ;
#189 = ORIENTED_EDGE ( 'NONE', *, *, #153, .T. ) ;
#190 = DIRECTION ( 'NONE',  ( 0.7071067811865421300, 0.7071067811865527900, 0.0000000000000000000 ) ) ;
#191 = LOCAL_TIME ( 16, 55, 33.00000000000000000, #227 ) ;
#192 = ORIENTED_EDGE ( 'NONE', *, *, #133, .T. ) ;
#193 = EDGE_CURVE ( 'NONE', #255, #151, #241, .T. ) ;
#194 = CIRCLE ( 'NONE', #125, 5.905511811023623100 ) ;
#195 = CARTESIAN_POINT ( 'NONE',  ( -0.06889763779527564900, -6.448681471888103000E-017, 0.0000000000000000000 ) ) ;
#196 = EDGE_LOOP ( 'NONE', ( #282, #107, #244, #131 ) ) ;
#197 = CIRCLE ( 'NONE', #16, 0.4930402875867464000 ) ;
#198 = DIRECTION ( 'NONE',  ( 1.385205257280124200E-016, -1.000000000000000000, 0.0000000000000000000 ) ) ;
#199 = DIRECTION ( 'NONE',  ( 1.385205257280124200E-016, -1.000000000000000000, 0.0000000000000000000 ) ) ;
#200 = ORIENTED_EDGE ( 'NONE', *, *, #10, .T. ) ;
#201 = CIRCLE ( 'NONE', #63, 0.4999999999999998300 ) ;
#202 = ORIENTED_EDGE ( 'NONE', *, *, #206, .T. ) ;
#203 = SPHERICAL_SURFACE ( 'NONE', #158, 2.811023622047244400 ) ;
#204 = ADVANCED_FACE ( 'NONE', ( #18 ), #250, .T. ) ;
#205 = DIRECTION ( 'NONE',  ( 0.0000000000000000000, 0.0000000000000000000, 1.000000000000000000 ) ) ;
#206 = EDGE_CURVE ( 'NONE', #230, #180, #29, .T. ) ;
#207 = ADVANCED_FACE ( 'NONE', ( #319 ), #90, .T. ) ;
#208 = TOROIDAL_SURFACE ( 'NONE', #21, 0.003218283617081511100, 5.905511811023623100 ) ;
#209 = APPROVAL_ROLE ( '' ) ;
#210 = DIRECTION ( 'NONE',  ( 1.212054600120109100E-016, -1.000000000000000000, 0.0000000000000000000 ) ) ;
#211 = CALENDAR_DATE ( 2015, 16, 11 ) ;
#212 = CIRCLE ( 'NONE', #281, 2.811023622047244400 ) ;
#213 = APPROVAL_STATUS ( 'not_yet_approved' ) ;
#214 = ORIENTED_EDGE ( 'NONE', *, *, #193, .F. ) ;
#215 = ADVANCED_BREP_SHAPE_REPRESENTATION ( '4940-E0W', ( #220, #232 ), #172 ) ;
#216 = COORDINATED_UNIVERSAL_TIME_OFFSET ( 5, 0, .BEHIND. ) ;
#217 = PERSON_AND_ORGANIZATION_ROLE ( 'creator' ) ;
#218 = ORIENTED_EDGE ( 'NONE', *, *, #225, .T. ) ;
#219 = DIRECTION ( 'NONE',  ( -1.195183497228115500E-016, 1.000000000000000000, 0.0000000000000000000 ) ) ;
#220 = MANIFOLD_SOLID_BREP ( '4940-001-1-solid1', #73 ) ;
#221 = APPROVAL_STATUS ( 'not_yet_approved' ) ;
#222 = FACE_OUTER_BOUND ( 'NONE', #114, .T. ) ;
#223 = APPLICATION_PROTOCOL_DEFINITION ( 'international standard', 'config_control_design', 1994, #15 ) ;
#224 = CARTESIAN_POINT ( 'NONE',  ( -0.04854975619868885700, 0.4930402875867485000, 6.038002100438022200E-017 ) ) ;
#225 = EDGE_CURVE ( 'NONE', #230, #255, #197, .T. ) ;
#226 = DIRECTION ( 'NONE',  ( -1.000000000000000000, -1.224646799147353900E-016, -0.0000000000000000000 ) ) ;
#227 = COORDINATED_UNIVERSAL_TIME_OFFSET ( 5, 0, .BEHIND. ) ;
#228 = CIRCLE ( 'NONE', #268, 0.4999999999999999400 ) ;
#229 = APPROVAL_DATE_TIME ( #256, #37 ) ;
#230 = VERTEX_POINT ( 'NONE', #224 ) ;
#231 = DIRECTION ( 'NONE',  ( 0.7071067811865424700, -0.7071067811865526800, 8.659560562354997000E-017 ) ) ;
#232 = AXIS2_PLACEMENT_3D ( 'NONE', #110, #205, #315 ) ;
#233 = ADVANCED_FACE ( 'NONE', ( #144 ), #183, .T. ) ;
#234 = DIRECTION ( 'NONE',  ( -1.000000000000000000, -1.224646799147353900E-016, -0.0000000000000000000 ) ) ;
#235 =( NAMED_UNIT ( * ) SI_UNIT ( $, .STERADIAN. ) SOLID_ANGLE_UNIT ( ) );
#236 = LENGTH_MEASURE_WITH_UNIT ( LENGTH_MEASURE( 0.02539999999999999900 ), #40 );
#237 = DIRECTION ( 'NONE',  ( -1.000000000000000000, -1.224646799147353900E-016, -0.0000000000000000000 ) ) ;
#238 = APPROVAL_PERSON_ORGANIZATION ( #328, #276, #173 ) ;
#239 = FACE_OUTER_BOUND ( 'NONE', #139, .T. ) ;
#240 = COORDINATED_UNIVERSAL_TIME_OFFSET ( 5, 0, .BEHIND. ) ;
#241 = CIRCLE ( 'NONE', #329, 5.905511811023623100 ) ;
#242 = CARTESIAN_POINT ( 'NONE',  ( 5.836613296306028400, 6.584180515979884500E-016, 0.0000000000000000000 ) ) ;
#243 = ORIENTED_EDGE ( 'NONE', *, *, #164, .T. ) ;
#244 = ORIENTED_EDGE ( 'NONE', *, *, #179, .T. ) ;
#245 = EDGE_CURVE ( 'NONE', #100, #42, #119, .T. ) ;
#246 = DIRECTION ( 'NONE',  ( -1.000000000000000000, -1.224646799147353900E-016, -0.0000000000000000000 ) ) ;
#247 = CALENDAR_DATE ( 2015, 16, 11 ) ;
#248 = PERSON_AND_ORGANIZATION ( #187, #152 ) ;
#249 = CARTESIAN_POINT ( 'NONE',  ( -0.04159004378543523100, -6.114259895922438300E-017, 0.0000000000000000000 ) ) ;
#250 = CYLINDRICAL_SURFACE ( 'NONE', #46, 0.4999999999999998300 ) ;
#251 = EDGE_LOOP ( 'NONE', ( #163, #218, #55 ) ) ;
#252 = CC_DESIGN_PERSON_AND_ORGANIZATION_ASSIGNMENT ( #322, #146, ( #92 ) ) ;
#253 = ORIENTED_EDGE ( 'NONE', *, *, #94, .T. ) ;
#254 = DIRECTION ( 'NONE',  ( 1.224646799147353900E-016, -1.000000000000000000, 0.0000000000000000000 ) ) ;
#255 = VERTEX_POINT ( 'NONE', #97 ) ;
#256 = DATE_AND_TIME ( #247, #299 ) ;
#257 = DIMENSIONAL_EXPONENTS ( 1.000000000000000000, 0.0000000000000000000, 0.0000000000000000000, 0.0000000000000000000, 0.0000000000000000000, 0.0000000000000000000, 0.0000000000000000000 ) ;
#258 = EDGE_CURVE ( 'NONE', #180, #292, #201, .T. ) ;
#259 = DIRECTION ( 'NONE',  ( -8.401686913527736900E-031, 6.860497997771531600E-015, 1.000000000000000000 ) ) ;
#260 = ORIENTED_EDGE ( 'NONE', *, *, #74, .T. ) ;
#261 = ORIENTED_EDGE ( 'NONE', *, *, #36, .F. ) ;
#262 = DIRECTION ( 'NONE',  ( 1.224646799147353900E-016, -1.000000000000000000, 0.0000000000000000000 ) ) ;
#263 = CARTESIAN_POINT ( 'NONE',  ( 0.1124738658485555100, -4.227521157948498200E-017, 0.0000000000000000000 ) ) ;
#264 = VERTEX_POINT ( 'NONE', #101 ) ;
#265 = PRODUCT_DEFINITION ( 'UNKNOWN', '', #24, #327 ) ;
#266 = DIRECTION ( 'NONE',  ( -1.000000000000000000, -1.224646799147353900E-016, -0.0000000000000000000 ) ) ;
#267 = ORIENTED_EDGE ( 'NONE', *, *, #245, .F. ) ;
#268 = AXIS2_PLACEMENT_3D ( 'NONE', #176, #266, #78 ) ;
#269 = LOCAL_TIME ( 16, 55, 33.00000000000000000, #240 ) ;
#270 = APPLICATION_PROTOCOL_DEFINITION ( 'international standard', 'config_control_design', 1994, #284 ) ;
#271 = DIRECTION ( 'NONE',  ( 1.000000000000000000, 1.224646799147353900E-016, 0.0000000000000000000 ) ) ;
#272 = EDGE_CURVE ( 'NONE', #264, #42, #43, .T. ) ;
#273 = CARTESIAN_POINT ( 'NONE',  ( 0.1124738658485555100, -4.227521157948498200E-017, 0.0000000000000000000 ) ) ;
#274 = DATE_AND_TIME ( #169, #17 ) ;
#275 = LINE ( 'NONE', #59, #162 ) ;
#276 = APPROVAL ( #148, 'UNSPECIFIED' ) ;
#277 = SHAPE_DEFINITION_REPRESENTATION ( #58, #215 ) ;
#278 = CARTESIAN_POINT ( 'NONE',  ( -0.04854975619868859300, -6.199491791221205500E-017, 0.0000000000000000000 ) ) ;
#279 = DIRECTION ( 'NONE',  ( -1.000000000000000000, -1.224646799147353900E-016, -0.0000000000000000000 ) ) ;
#280 = PERSON_AND_ORGANIZATION ( #187, #152 ) ;
#281 = AXIS2_PLACEMENT_3D ( 'NONE', #26, #86, #317 ) ;
#282 = ORIENTED_EDGE ( 'NONE', *, *, #133, .F. ) ;
#283 = FACE_OUTER_BOUND ( 'NONE', #39, .T. ) ;
#284 = APPLICATION_CONTEXT ( 'configuration controlled 3d designs of mechanical parts and assemblies' ) ;
#285 = CARTESIAN_POINT ( 'NONE',  ( 0.1124738658485555800, -0.4930402875867466700, 0.0000000000000000000 ) ) ;
#286 = DIRECTION ( 'NONE',  ( 1.195183497228115500E-016, -1.000000000000000000, 0.0000000000000000000 ) ) ;
#287 = EDGE_CURVE ( 'NONE', #230, #151, #194, .T. ) ;
#288 = DIRECTION ( 'NONE',  ( 1.195183497228115500E-016, -1.000000000000000000, 0.0000000000000000000 ) ) ;
#289 = ORIENTED_EDGE ( 'NONE', *, *, #54, .F. ) ;
#290 = PERSON_AND_ORGANIZATION ( #187, #152 ) ;
#291 = DIRECTION ( 'NONE',  ( 1.385205257280124200E-016, -1.000000000000000000, 0.0000000000000000000 ) ) ;
#292 = VERTEX_POINT ( 'NONE', #89 ) ;
#293 = CC_DESIGN_APPROVAL ( #276, ( #265 ) ) ;
#294 = CARTESIAN_POINT ( 'NONE',  ( 0.06889763779527564900, 6.448681471888132100E-016, -4.444171266601565000E-030 ) ) ;
#295 = ORIENTED_EDGE ( 'NONE', *, *, #206, .F. ) ;
#296 = CARTESIAN_POINT ( 'NONE',  ( 0.1055141534353020400, -4.312753053247267900E-017, 0.0000000000000000000 ) ) ;
#297 = DIRECTION ( 'NONE',  ( 1.365923996832131900E-016, -1.000000000000000000, 0.0000000000000000000 ) ) ;
#298 = DIRECTION ( 'NONE',  ( -1.000000000000000000, -1.224646799147353900E-016, -0.0000000000000000000 ) ) ;
#299 = LOCAL_TIME ( 16, 55, 33.00000000000000000, #132 ) ;
#300 = DIRECTION ( 'NONE',  ( 1.943667760198102900E-016, -1.000000000000000000, 6.982962677686266700E-015 ) ) ;
#301 = CIRCLE ( 'NONE', #2, 0.4930402875867466200 ) ;
#302 = VECTOR ( 'NONE', #181, 39.37007874015748900 ) ;
#303 = EDGE_LOOP ( 'NONE', ( #200, #69, #214 ) ) ;
#304 = DIRECTION ( 'NONE',  ( 1.499759782661858700E-032, -1.224646799147353200E-016, 1.000000000000000000 ) ) ;
#305 = AXIS2_PLACEMENT_3D ( 'NONE', #309, #47, #137 ) ;
#306 = DIRECTION ( 'NONE',  ( -8.551662891793922500E-031, 6.982962677686266700E-015, 1.000000000000000000 ) ) ;
#307 = CARTESIAN_POINT ( 'NONE',  ( -0.06889763779527559300, -0.4999999999999999400, 0.0000000000000000000 ) ) ;
#308 = ADVANCED_FACE ( 'NONE', ( #283 ), #203, .F. ) ;
#309 = CARTESIAN_POINT ( 'NONE',  ( 2.879921259842519900, 1.161244809348977000E-015, -5.646117586432442800E-030 ) ) ;
#310 = EDGE_LOOP ( 'NONE', ( #120, #35, #202, #5 ) ) ;
#311 = CARTESIAN_POINT ( 'NONE',  ( 5.836613296306028400, 0.003218283617082169400, 3.941260730407238600E-019 ) ) ;
#312 = ADVANCED_FACE ( 'NONE', ( #222 ), #116, .T. ) ;
#313 = AXIS2_PLACEMENT_3D ( 'NONE', #278, #45, #210 ) ;
#314 = PERSON_AND_ORGANIZATION ( #187, #152 ) ;
#315 = DIRECTION ( 'NONE',  ( 1.000000000000000000, 0.0000000000000000000, 0.0000000000000000000 ) ) ;
#316 = LINE ( 'NONE', #161, #325 ) ;
#317 = DIRECTION ( 'NONE',  ( 0.0000000000000000000, 1.000000000000000000, -6.982962677686266700E-015 ) ) ;
#318 =( CONVERSION_BASED_UNIT ( 'INCH', #236 ) LENGTH_UNIT ( ) NAMED_UNIT ( #257 ) );
#319 = FACE_OUTER_BOUND ( 'NONE', #310, .T. ) ;
#320 = ORIENTED_EDGE ( 'NONE', *, *, #272, .F. ) ;
#321 = DIRECTION ( 'NONE',  ( 0.0000000000000000000, -1.000000000000000000, -1.224646799147353200E-016 ) ) ;
#322 = PERSON_AND_ORGANIZATION ( #187, #152 ) ;
#323 = CC_DESIGN_PERSON_AND_ORGANIZATION_ASSIGNMENT ( #314, #217, ( #265 ) ) ;
#324 = ORIENTED_EDGE ( 'NONE', *, *, #164, .F. ) ;
#325 = VECTOR ( 'NONE', #41, 39.37007874015748100 ) ;
#326 = EDGE_LOOP ( 'NONE', ( #30, #189, #260, #295 ) ) ;
#327 = DESIGN_CONTEXT ( 'detailed design', #15, 'design' ) ;
#328 = PERSON_AND_ORGANIZATION ( #187, #152 ) ;
#329 = AXIS2_PLACEMENT_3D ( 'NONE', #93, #67, #177 ) ;
#330 = ORIENTED_EDGE ( 'NONE', *, *, #94, .F. ) ;
ENDSEC;
END-ISO-10303-21;
