ISO-10303-21;
HEADER;
FILE_DESCRIPTION (( 'STEP AP214' ),
    '1' );
FILE_NAME ('PKJESP.STEP',
    '2015-01-14T09:17:38',
    ( '' ),
    ( '' ),
    'SwSTEP 2.0',
    'SolidWorks 2012',
    '' );
FILE_SCHEMA (( 'AUTOMOTIVE_DESIGN' ));
ENDSEC;

DATA;
#1 = PRODUCT ( 'PKJESP', 'PKJESP', '', ( #17 ) ) ;
#2 = SURFACE_STYLE_FILL_AREA ( #76 ) ;
#3 = PRESENTATION_STYLE_ASSIGNMENT (( #80 ) ) ;
#4 = COLOUR_RGB ( '',1.000000000000000000, 0.5019607843137254800, 0.5019607843137254800 ) ;
#5 = SHAPE_DEFINITION_REPRESENTATION ( #96, #89 ) ;
#6 = EDGE_CURVE ( 'NONE', #119, #97, #100, .T. ) ;
#7 = EDGE_CURVE ( 'NONE', #97, #114, #104, .T. ) ;
#8 = AXIS2_PLACEMENT_3D ( 'NONE', #36, #38, #39 ) ;
#9 = EDGE_CURVE ( 'NONE', #97, #119, #106, .T. ) ;
#10 = AXIS2_PLACEMENT_3D ( 'NONE', #33, #32, #29 ) ;
#11 = EDGE_CURVE ( 'NONE', #119, #114, #98, .T. ) ;
#12 =( LENGTH_UNIT ( ) NAMED_UNIT ( * ) SI_UNIT ( .MILLI., .METRE. ) );
#13 =( NAMED_UNIT ( * ) PLANE_ANGLE_UNIT ( ) SI_UNIT ( $, .RADIAN. ) );
#14 =( NAMED_UNIT ( * ) SI_UNIT ( $, .STERADIAN. ) SOLID_ANGLE_UNIT ( ) );
#15 = FILL_AREA_STYLE_COLOUR ( '', #4 ) ;
#16 = CARTESIAN_POINT ( 'NONE',  ( -1.500000000000000000, 0.0000000000000000000, -3.314341462499790000E-017 ) ) ;
#17 = PRODUCT_CONTEXT ( 'NONE', #77, 'mechanical' ) ;
#18 = DIRECTION ( 'NONE',  ( 1.000000000000000000, 0.0000000000000000000, 0.0000000000000000000 ) ) ;
#19 = DIRECTION ( 'NONE',  ( 0.0000000000000000000, 0.0000000000000000000, 1.000000000000000000 ) ) ;
#20 = SURFACE_SIDE_STYLE ('',( #117 ) ) ;
#21 = CARTESIAN_POINT ( 'NONE',  ( 0.0000000000000000000, 0.0000000000000000000, 0.0000000000000000000 ) ) ;
#22 =( NAMED_UNIT ( * ) SI_UNIT ( $, .STERADIAN. ) SOLID_ANGLE_UNIT ( ) );
#23 = CARTESIAN_POINT ( 'NONE',  ( -1.500000000000000000, 0.0000000000000000000, 9.184850993605149700E-017 ) ) ;
#24 = CARTESIAN_POINT ( 'NONE',  ( 0.0000000000000000000, 0.0000000000000000000, 0.0000000000000000000 ) ) ;
#25 = SURFACE_STYLE_USAGE ( .BOTH. , #44 ) ;
#26 =( LENGTH_UNIT ( ) NAMED_UNIT ( * ) SI_UNIT ( .MILLI., .METRE. ) );
#27 = DIRECTION ( 'NONE',  ( 1.000000000000000000, -1.224646799147353200E-016, 0.0000000000000000000 ) ) ;
#28 = FILL_AREA_STYLE_COLOUR ( '', #126 ) ;
#29 = DIRECTION ( 'NONE',  ( 1.000000000000000000, 0.0000000000000000000, -1.224646799147353200E-016 ) ) ;
#30 =( NAMED_UNIT ( * ) SI_UNIT ( $, .STERADIAN. ) SOLID_ANGLE_UNIT ( ) );
#31 =( NAMED_UNIT ( * ) PLANE_ANGLE_UNIT ( ) SI_UNIT ( $, .RADIAN. ) );
#32 = DIRECTION ( 'NONE',  ( 1.224646799147353200E-016, -0.0000000000000000000, 1.000000000000000000 ) ) ;
#33 = CARTESIAN_POINT ( 'NONE',  ( -2.407412430484044800E-032, 0.0000000000000000000, -2.168404344971008900E-016 ) ) ;
#34 = SURFACE_SIDE_STYLE ('',( #130 ) ) ;
#35 = SURFACE_STYLE_USAGE ( .BOTH. , #34 ) ;
#36 = CARTESIAN_POINT ( 'NONE',  ( -2.407412430484044800E-032, 0.0000000000000000000, -2.168404344971008900E-016 ) ) ;
#37 = FILL_AREA_STYLE ('',( #28 ) ) ;
#38 = DIRECTION ( 'NONE',  ( 1.224646799147353200E-016, -0.0000000000000000000, 1.000000000000000000 ) ) ;
#39 = DIRECTION ( 'NONE',  ( 1.000000000000000000, 0.0000000000000000000, -1.224646799147353200E-016 ) ) ;
#40 = DIRECTION ( 'NONE',  ( 0.0000000000000000000, -1.000000000000000000, 0.0000000000000000000 ) ) ;
#41 = CARTESIAN_POINT ( 'NONE',  ( 0.0000000000000000000, 0.0000000000000000000, 0.0000000000000000000 ) ) ;
#42 = FILL_AREA_STYLE_COLOUR ( '', #131 ) ;
#43 = FILL_AREA_STYLE ('',( #63 ) ) ;
#44 = SURFACE_SIDE_STYLE ('',( #121 ) ) ;
#45 =( NAMED_UNIT ( * ) PLANE_ANGLE_UNIT ( ) SI_UNIT ( $, .RADIAN. ) );
#46 = CARTESIAN_POINT ( 'NONE',  ( 1.500000000000000000, -1.836970198721029900E-016, -4.005374543692038600E-016 ) ) ;
#47 = PLANE ( 'NONE',  #153 ) ;
#48 = DIRECTION ( 'NONE',  ( 1.224646799147353200E-016, -0.0000000000000000000, 1.000000000000000000 ) ) ;
#49 = DIRECTION ( 'NONE',  ( 0.0000000000000000000, -1.000000000000000000, 0.0000000000000000000 ) ) ;
#50 =( LENGTH_UNIT ( ) NAMED_UNIT ( * ) SI_UNIT ( .MILLI., .METRE. ) );
#51 =( NAMED_UNIT ( * ) PLANE_ANGLE_UNIT ( ) SI_UNIT ( $, .RADIAN. ) );
#52 = FILL_AREA_STYLE_COLOUR ( '', #120 ) ;
#53 = SURFACE_STYLE_USAGE ( .BOTH. , #20 ) ;
#54 =( LENGTH_UNIT ( ) NAMED_UNIT ( * ) SI_UNIT ( .MILLI., .METRE. ) );
#55 = FILL_AREA_STYLE ('',( #42 ) ) ;
#56 = DIRECTION ( 'NONE',  ( 0.0000000000000000000, 1.000000000000000000, 0.0000000000000000000 ) ) ;
#57 = DIRECTION ( 'NONE',  ( 0.0000000000000000000, 0.0000000000000000000, 1.000000000000000000 ) ) ;
#58 = DIRECTION ( 'NONE',  ( -1.000000000000000000, 0.0000000000000000000, 1.224646799147353200E-016 ) ) ;
#59 = SURFACE_SIDE_STYLE ('',( #125 ) ) ;
#60 = SURFACE_STYLE_USAGE ( .BOTH. , #59 ) ;
#61 =( NAMED_UNIT ( * ) SI_UNIT ( $, .STERADIAN. ) SOLID_ANGLE_UNIT ( ) );
#62 = FILL_AREA_STYLE ('',( #52 ) ) ;
#63 = FILL_AREA_STYLE_COLOUR ( '', #118 ) ;
#64 = DIRECTION ( 'NONE',  ( -1.000000000000000000, 0.0000000000000000000, 1.224646799147353200E-016 ) ) ;
#65 = CARTESIAN_POINT ( 'NONE',  ( 0.0000000000000000000, 0.0000000000000000000, 0.0000000000000000000 ) ) ;
#66 = DIRECTION ( 'NONE',  ( -1.224646799147353200E-016, -1.000000000000000000, 1.499759782661857600E-032 ) ) ;
#67 = APPLICATION_PROTOCOL_DEFINITION ( 'draft international standard', 'automotive_design', 1998, #77 ) ;
#68 =( NAMED_UNIT ( * ) SI_UNIT ( $, .STERADIAN. ) SOLID_ANGLE_UNIT ( ) );
#69 =( NAMED_UNIT ( * ) PLANE_ANGLE_UNIT ( ) SI_UNIT ( $, .RADIAN. ) );
#70 =( LENGTH_UNIT ( ) NAMED_UNIT ( * ) SI_UNIT ( .MILLI., .METRE. ) );
#71 = DIRECTION ( 'NONE',  ( 1.000000000000000000, 0.0000000000000000000, -1.224646799147353200E-016 ) ) ;
#72 = CARTESIAN_POINT ( 'NONE',  ( 9.184850993605149700E-017, 0.0000000000000000000, 1.500000000000000000 ) ) ;
#73 = APPLICATION_PROTOCOL_DEFINITION ( 'draft international standard', 'automotive_design', 1998, #74 ) ;
#74 = APPLICATION_CONTEXT ( 'automotive_design' ) ;
#75 = SURFACE_SIDE_STYLE ('',( #2 ) ) ;
#76 = FILL_AREA_STYLE ('',( #15 ) ) ;
#77 = APPLICATION_CONTEXT ( 'automotive_design' ) ;
#78 =( NAMED_UNIT ( * ) PLANE_ANGLE_UNIT ( ) SI_UNIT ( $, .RADIAN. ) );
#79 =( LENGTH_UNIT ( ) NAMED_UNIT ( * ) SI_UNIT ( .MILLI., .METRE. ) );
#80 = SURFACE_STYLE_USAGE ( .BOTH. , #75 ) ;
#81 = CARTESIAN_POINT ( 'NONE',  ( 0.0000000000000000000, 0.0000000000000000000, 0.0000000000000000000 ) ) ;
#82 =( NAMED_UNIT ( * ) SI_UNIT ( $, .STERADIAN. ) SOLID_ANGLE_UNIT ( ) );
#83 = AXIS2_PLACEMENT_3D ( 'NONE', #65, #66, #27 ) ;
#84 = UNCERTAINTY_MEASURE_WITH_UNIT (LENGTH_MEASURE( 1.000000000000000100E-005 ), #12, 'distance_accuracy_value', 'NONE');
#85 = UNCERTAINTY_MEASURE_WITH_UNIT (LENGTH_MEASURE( 1.000000000000000100E-005 ), #26, 'distance_accuracy_value', 'NONE');
#86 = MANIFOLD_SOLID_BREP ( 'Revolve1', #102 ) ;
#87 = UNCERTAINTY_MEASURE_WITH_UNIT (LENGTH_MEASURE( 1.000000000000000100E-005 ), #54, 'distance_accuracy_value', 'NONE');
#88 = UNCERTAINTY_MEASURE_WITH_UNIT (LENGTH_MEASURE( 1.000000000000000100E-005 ), #79, 'distance_accuracy_value', 'NONE');
#89 = ADVANCED_BREP_SHAPE_REPRESENTATION ( 'PKJESP', ( #86, #158 ), #152 ) ;
#90 = UNCERTAINTY_MEASURE_WITH_UNIT (LENGTH_MEASURE( 1.000000000000000100E-005 ), #70, 'distance_accuracy_value', 'NONE');
#91 = UNCERTAINTY_MEASURE_WITH_UNIT (LENGTH_MEASURE( 1.000000000000000100E-005 ), #50, 'distance_accuracy_value', 'NONE');
#92 = ADVANCED_FACE ( 'NONE', ( #103 ), #123, .T. ) ;
#93 = ADVANCED_FACE ( 'NONE', ( #127 ), #128, .T. ) ;
#94 = ADVANCED_FACE ( 'NONE', ( #132 ), #47, .F. ) ;
#95 = PRODUCT_DEFINITION_CONTEXT ( 'detailed design', #74, 'design' ) ;
#96 = PRODUCT_DEFINITION_SHAPE ( 'NONE', 'NONE',  #159 ) ;
#97 = VERTEX_POINT ( 'NONE', #46 ) ;
#98 = CIRCLE ( 'NONE', #133, 1.500000000000000000 ) ;
#99 = ORIENTED_EDGE ( 'NONE', *, *, #7, .F. ) ;
#100 = CIRCLE ( 'NONE', #10, 1.500000000000000000 ) ;
#101 = ORIENTED_EDGE ( 'NONE', *, *, #11, .T. ) ;
#102 = CLOSED_SHELL ( 'NONE', ( #93, #94, #92 ) ) ;
#103 = FACE_OUTER_BOUND ( 'NONE', #107, .T. ) ;
#104 = CIRCLE ( 'NONE', #83, 1.500000000000000000 ) ;
#105 = PRESENTATION_STYLE_ASSIGNMENT (( #53 ) ) ;
#106 = CIRCLE ( 'NONE', #8, 1.500000000000000000 ) ;
#107 = EDGE_LOOP ( 'NONE', ( #99, #112, #101 ) ) ;
#108 = ORIENTED_EDGE ( 'NONE', *, *, #11, .F. ) ;
#109 = ORIENTED_EDGE ( 'NONE', *, *, #9, .F. ) ;
#110 = ORIENTED_EDGE ( 'NONE', *, *, #6, .T. ) ;
#111 = EDGE_LOOP ( 'NONE', ( #110, #115, #108 ) ) ;
#112 = ORIENTED_EDGE ( 'NONE', *, *, #9, .T. ) ;
#113 = ORIENTED_EDGE ( 'NONE', *, *, #6, .F. ) ;
#114 = VERTEX_POINT ( 'NONE', #72 ) ;
#115 = ORIENTED_EDGE ( 'NONE', *, *, #7, .T. ) ;
#116 = EDGE_LOOP ( 'NONE', ( #113, #109 ) ) ;
#117 = SURFACE_STYLE_FILL_AREA ( #62 ) ;
#118 = COLOUR_RGB ( '',1.000000000000000000, 1.000000000000000000, 1.000000000000000000 ) ;
#119 = VERTEX_POINT ( 'NONE', #16 ) ;
#120 = COLOUR_RGB ( '',1.000000000000000000, 0.5019607843137254800, 0.5019607843137254800 ) ;
#121 = SURFACE_STYLE_FILL_AREA ( #43 ) ;
#122 = PRESENTATION_STYLE_ASSIGNMENT (( #25 ) ) ;
#123 = SPHERICAL_SURFACE ( 'NONE', #143, 1.500000000000000000 ) ;
#124 = PRESENTATION_STYLE_ASSIGNMENT (( #60 ) ) ;
#125 = SURFACE_STYLE_FILL_AREA ( #37 ) ;
#126 = COLOUR_RGB ( '',1.000000000000000000, 1.000000000000000000, 1.000000000000000000 ) ;
#127 = FACE_OUTER_BOUND ( 'NONE', #111, .T. ) ;
#128 = SPHERICAL_SURFACE ( 'NONE', #148, 1.500000000000000000 ) ;
#129 = PRESENTATION_STYLE_ASSIGNMENT (( #35 ) ) ;
#130 = SURFACE_STYLE_FILL_AREA ( #55 ) ;
#131 = COLOUR_RGB ( '',1.000000000000000000, 1.000000000000000000, 1.000000000000000000 ) ;
#132 = FACE_OUTER_BOUND ( 'NONE', #116, .T. ) ;
#133 = AXIS2_PLACEMENT_3D ( 'NONE', #24, #56, #57 ) ;
#134 = STYLED_ITEM ( 'NONE', ( #105 ), #86 ) ;
#135 = PRESENTATION_LAYER_ASSIGNMENT (  '', '', ( #134 ) ) ;
#136 = MECHANICAL_DESIGN_GEOMETRIC_PRESENTATION_REPRESENTATION (  '', ( #134 ), #137 ) ;
#137 =( GEOMETRIC_REPRESENTATION_CONTEXT ( 3 ) GLOBAL_UNCERTAINTY_ASSIGNED_CONTEXT ( ( #87 ) ) GLOBAL_UNIT_ASSIGNED_CONTEXT ( ( #54, #45, #30 ) ) REPRESENTATION_CONTEXT ( 'NONE', 'WORKASPACE' ) );
#138 = STYLED_ITEM ( 'NONE', ( #122 ), #92 ) ;
#139 = PRESENTATION_LAYER_ASSIGNMENT (  '', '', ( #138 ) ) ;
#140 = MECHANICAL_DESIGN_GEOMETRIC_PRESENTATION_REPRESENTATION (  '', ( #138 ), #141 ) ;
#141 =( GEOMETRIC_REPRESENTATION_CONTEXT ( 3 ) GLOBAL_UNCERTAINTY_ASSIGNED_CONTEXT ( ( #85 ) ) GLOBAL_UNIT_ASSIGNED_CONTEXT ( ( #26, #31, #61 ) ) REPRESENTATION_CONTEXT ( 'NONE', 'WORKASPACE' ) );
#142 = STYLED_ITEM ( 'NONE', ( #124 ), #93 ) ;
#143 = AXIS2_PLACEMENT_3D ( 'NONE', #21, #40, #64 ) ;
#144 = PRESENTATION_LAYER_ASSIGNMENT (  '', '', ( #142 ) ) ;
#145 = MECHANICAL_DESIGN_GEOMETRIC_PRESENTATION_REPRESENTATION (  '', ( #142 ), #146 ) ;
#146 =( GEOMETRIC_REPRESENTATION_CONTEXT ( 3 ) GLOBAL_UNCERTAINTY_ASSIGNED_CONTEXT ( ( #84 ) ) GLOBAL_UNIT_ASSIGNED_CONTEXT ( ( #12, #13, #14 ) ) REPRESENTATION_CONTEXT ( 'NONE', 'WORKASPACE' ) );
#147 = STYLED_ITEM ( 'NONE', ( #129 ), #94 ) ;
#148 = AXIS2_PLACEMENT_3D ( 'NONE', #41, #49, #58 ) ;
#149 = PRESENTATION_LAYER_ASSIGNMENT (  '', '', ( #147 ) ) ;
#150 = MECHANICAL_DESIGN_GEOMETRIC_PRESENTATION_REPRESENTATION (  '', ( #147 ), #151 ) ;
#151 =( GEOMETRIC_REPRESENTATION_CONTEXT ( 3 ) GLOBAL_UNCERTAINTY_ASSIGNED_CONTEXT ( ( #91 ) ) GLOBAL_UNIT_ASSIGNED_CONTEXT ( ( #50, #51, #22 ) ) REPRESENTATION_CONTEXT ( 'NONE', 'WORKASPACE' ) );
#152 =( GEOMETRIC_REPRESENTATION_CONTEXT ( 3 ) GLOBAL_UNCERTAINTY_ASSIGNED_CONTEXT ( ( #90 ) ) GLOBAL_UNIT_ASSIGNED_CONTEXT ( ( #70, #69, #68 ) ) REPRESENTATION_CONTEXT ( 'NONE', 'WORKASPACE' ) );
#153 = AXIS2_PLACEMENT_3D ( 'NONE', #23, #48, #71 ) ;
#154 = STYLED_ITEM ( 'NONE', ( #3 ), #89 ) ;
#155 = PRESENTATION_LAYER_ASSIGNMENT (  '', '', ( #154 ) ) ;
#156 = MECHANICAL_DESIGN_GEOMETRIC_PRESENTATION_REPRESENTATION (  '', ( #154 ), #157 ) ;
#157 =( GEOMETRIC_REPRESENTATION_CONTEXT ( 3 ) GLOBAL_UNCERTAINTY_ASSIGNED_CONTEXT ( ( #88 ) ) GLOBAL_UNIT_ASSIGNED_CONTEXT ( ( #79, #78, #82 ) ) REPRESENTATION_CONTEXT ( 'NONE', 'WORKASPACE' ) );
#158 = AXIS2_PLACEMENT_3D ( 'NONE', #81, #19, #18 ) ;
#159 = PRODUCT_DEFINITION ( 'UNKNOWN', '', #160, #95 ) ;
#160 = PRODUCT_DEFINITION_FORMATION_WITH_SPECIFIED_SOURCE ( 'ANY', '', #1, .NOT_KNOWN. ) ;
#161 = PRODUCT_RELATED_PRODUCT_CATEGORY ( 'part', '', ( #1 ) ) ;
ENDSEC;
END-ISO-10303-21;
