ISO-10303-21;
HEADER;
FILE_DESCRIPTION (( 'STEP AP203' ),
    '1' );
FILE_NAME ('Web Model 34412_34412.step',
    '2017-12-19T15:36:12',
    ( '' ),
    ( '' ),
    'SwSTEP 2.0',
    'SolidWorks 2016',
    '' );
FILE_SCHEMA (( 'CONFIG_CONTROL_DESIGN' ));
ENDSEC;

DATA;
#1 = PLANE ( 'NONE',  #161 ) ;
#2 = CARTESIAN_POINT ( 'NONE',  ( -12.50000000000000000, 12.50000000000000000, 1.500000000000000000 ) ) ;
#3 = CARTESIAN_POINT ( 'NONE',  ( 0.0000000000000000000, 0.0000000000000000000, 1.500000000000000000 ) ) ;
#4 = ORIENTED_EDGE ( 'NONE', *, *, #169, .T. ) ;
#5 = DIRECTION ( 'NONE',  ( -0.0000000000000000000, -0.0000000000000000000, -1.000000000000000000 ) ) ;
#6 = APPLICATION_CONTEXT ( 'configuration controlled 3d designs of mechanical parts and assemblies' ) ;
#7 = CARTESIAN_POINT ( 'NONE',  ( -12.50000000000000000, 0.0000000000000000000, 1.390914152615603700 ) ) ;
#8 = COORDINATED_UNIVERSAL_TIME_OFFSET ( 5, 0, .BEHIND. ) ;
#9 = APPROVAL_DATE_TIME ( #56, #89 ) ;
#10 = MECHANICAL_CONTEXT ( 'NONE', #119, 'mechanical' ) ;
#11 = VERTEX_POINT ( 'NONE', #20 ) ;
#12 = ORIENTED_EDGE ( 'NONE', *, *, #138, .F. ) ;
#13 = CC_DESIGN_PERSON_AND_ORGANIZATION_ASSIGNMENT ( #103, #150, ( #39 ) ) ;
#14 = DESIGN_CONTEXT ( 'detailed design', #6, 'design' ) ;
#15 = DIRECTION ( 'NONE',  ( -1.000000000000000000, 0.0000000000000000000, 0.0000000000000000000 ) ) ;
#16 = DIRECTION ( 'NONE',  ( 1.000000000000000000, 0.0000000000000000000, -0.0000000000000000000 ) ) ;
#17 = DIRECTION ( 'NONE',  ( 1.000000000000000000, 0.0000000000000000000, 0.0000000000000000000 ) ) ;
#18 = LOCAL_TIME ( 10, 36, 12.00000000000000000, #8 ) ;
#19 = APPROVAL_STATUS ( 'not_yet_approved' ) ;
#20 = CARTESIAN_POINT ( 'NONE',  ( -12.50000000000000000, 0.0000000000000000000, -1.500000000000000000 ) ) ;
#21 = CIRCLE ( 'NONE', #58, 12.50000000000000000 ) ;
#22 = CARTESIAN_POINT ( 'NONE',  ( 0.0000000000000000000, 0.0000000000000000000, -1.500000000000000000 ) ) ;
#23 = PRODUCT_RELATED_PRODUCT_CATEGORY ( 'detail', '', ( #114 ) ) ;
#24 = PERSON_AND_ORGANIZATION ( #166, #86 ) ;
#25 = APPROVAL_STATUS ( 'not_yet_approved' ) ;
#26 = CALENDAR_DATE ( 2017, 19, 12 ) ;
#27 =( BOUNDED_CURVE ( )  B_SPLINE_CURVE ( 3, ( #30, #108, #32, #165 ),
 .UNSPECIFIED., .F., .F. ) 
 B_SPLINE_CURVE_WITH_KNOTS ( ( 4, 4 ),
 ( 1.570796326794896600, 4.712388980384689700 ),
 .UNSPECIFIED. ) 
 CURVE ( )  GEOMETRIC_REPRESENTATION_ITEM ( )  RATIONAL_B_SPLINE_CURVE ( ( 1.000000000000000000, 0.3333333333333333700, 0.3333333333333333700, 1.000000000000000000 ) ) 
 REPRESENTATION_ITEM ( '' )  );
#28 = LOCAL_TIME ( 10, 36, 12.00000000000000000, #171 ) ;
#29 = PERSON_AND_ORGANIZATION ( #166, #86 ) ;
#30 = CARTESIAN_POINT ( 'NONE',  ( -12.50000000000000000, 0.0000000000000000000, 1.390914152615603700 ) ) ;
#31 = ADVANCED_FACE ( 'NONE', ( #144 ), #107, .F. ) ;
#32 = CARTESIAN_POINT ( 'NONE',  ( 12.50000000000000000, 25.00000000000000000, 1.609085847384396800 ) ) ;
#33 = CARTESIAN_POINT ( 'NONE',  ( -12.50000000000000000, 0.0000000000000000000, 1.500000000000000000 ) ) ;
#34 =( NAMED_UNIT ( * ) SI_UNIT ( $, .STERADIAN. ) SOLID_ANGLE_UNIT ( ) );
#35 = ORIENTED_EDGE ( 'NONE', *, *, #145, .T. ) ;
#36 = PRODUCT_DEFINITION_SHAPE ( 'NONE', 'NONE',  #146 ) ;
#37 = AXIS2_PLACEMENT_3D ( 'NONE', #2, #88, #54 ) ;
#38 = DATE_AND_TIME ( #125, #78 ) ;
#39 = PRODUCT_DEFINITION_FORMATION_WITH_SPECIFIED_SOURCE ( 'ANY', '', #114, .NOT_KNOWN. ) ;
#40 = EDGE_LOOP ( 'NONE', ( #120, #130 ) ) ;
#41 = AXIS2_PLACEMENT_3D ( 'NONE', #3, #126, #15 ) ;
#42 = CALENDAR_DATE ( 2017, 19, 12 ) ;
#43 = DIRECTION ( 'NONE',  ( 0.0000000000000000000, 0.0000000000000000000, 1.000000000000000000 ) ) ;
#44 = AXIS2_PLACEMENT_3D ( 'NONE', #61, #77, #172 ) ;
#45 = PERSON_AND_ORGANIZATION_ROLE ( 'creator' ) ;
#46 = PERSON_AND_ORGANIZATION ( #166, #86 ) ;
#47 =( BOUNDED_CURVE ( )  B_SPLINE_CURVE ( 3, ( #55, #131, #101, #7 ),
 .UNSPECIFIED., .F., .T. ) 
 B_SPLINE_CURVE_WITH_KNOTS ( ( 4, 4 ),
 ( 4.712388980384689700, 7.853981633974482800 ),
 .UNSPECIFIED. ) 
 CURVE ( )  GEOMETRIC_REPRESENTATION_ITEM ( )  RATIONAL_B_SPLINE_CURVE ( ( 1.000000000000000000, 0.3333333333333333700, 0.3333333333333333700, 1.000000000000000000 ) ) 
 REPRESENTATION_ITEM ( '' )  );
#48 = DATE_TIME_ROLE ( 'creation_date' ) ;
#49 = FACE_OUTER_BOUND ( 'NONE', #105, .T. ) ;
#50 =( GEOMETRIC_REPRESENTATION_CONTEXT ( 3 ) GLOBAL_UNCERTAINTY_ASSIGNED_CONTEXT ( ( #81 ) ) GLOBAL_UNIT_ASSIGNED_CONTEXT ( ( #133, #76, #34 ) ) REPRESENTATION_CONTEXT ( 'NONE', 'WORKASPACE' ) );
#51 = LINE ( 'NONE', #84, #157 ) ;
#52 = ORIENTED_EDGE ( 'NONE', *, *, #169, .F. ) ;
#53 = VERTEX_POINT ( 'NONE', #67 ) ;
#54 = DIRECTION ( 'NONE',  ( 0.0000000000000000000, 0.9999619230641713100, 0.008726535498366855300 ) ) ;
#55 = CARTESIAN_POINT ( 'NONE',  ( 12.50000000000000000, 1.530808498934191500E-015, 1.390914152615603700 ) ) ;
#56 = DATE_AND_TIME ( #26, #121 ) ;
#57 = FACE_OUTER_BOUND ( 'NONE', #40, .T. ) ;
#58 = AXIS2_PLACEMENT_3D ( 'NONE', #148, #97, #17 ) ;
#59 = CC_DESIGN_PERSON_AND_ORGANIZATION_ASSIGNMENT ( #162, #45, ( #146 ) ) ;
#60 = CALENDAR_DATE ( 2017, 19, 12 ) ;
#61 = CARTESIAN_POINT ( 'NONE',  ( 0.0000000000000000000, 0.0000000000000000000, 0.0000000000000000000 ) ) ;
#62 = FACE_OUTER_BOUND ( 'NONE', #73, .T. ) ;
#63 = COORDINATED_UNIVERSAL_TIME_OFFSET ( 5, 0, .BEHIND. ) ;
#64 = CC_DESIGN_PERSON_AND_ORGANIZATION_ASSIGNMENT ( #24, #102, ( #114 ) ) ;
#65 = ORIENTED_EDGE ( 'NONE', *, *, #134, .F. ) ;
#66 = AXIS2_PLACEMENT_3D ( 'NONE', #22, #154, #141 ) ;
#67 = CARTESIAN_POINT ( 'NONE',  ( 12.50000000000000000, 1.530808498934191500E-015, 1.390914152615603700 ) ) ;
#68 = DATE_AND_TIME ( #42, #28 ) ;
#69 = APPROVAL_PERSON_ORGANIZATION ( #129, #158, #72 ) ;
#70 = APPROVAL_STATUS ( 'not_yet_approved' ) ;
#71 = DIRECTION ( 'NONE',  ( -0.0000000000000000000, -0.0000000000000000000, -1.000000000000000000 ) ) ;
#72 = APPROVAL_ROLE ( '' ) ;
#73 = EDGE_LOOP ( 'NONE', ( #143, #92, #111, #174 ) ) ;
#74 = CC_DESIGN_PERSON_AND_ORGANIZATION_ASSIGNMENT ( #82, #164, ( #127 ) ) ;
#75 = SHAPE_DEFINITION_REPRESENTATION ( #36, #151 ) ;
#76 =( NAMED_UNIT ( * ) PLANE_ANGLE_UNIT ( ) SI_UNIT ( $, .RADIAN. ) );
#77 = DIRECTION ( 'NONE',  ( 0.0000000000000000000, 0.0000000000000000000, 1.000000000000000000 ) ) ;
#78 = LOCAL_TIME ( 10, 36, 12.00000000000000000, #63 ) ;
#79 = VERTEX_POINT ( 'NONE', #96 ) ;
#80 = CC_DESIGN_DATE_AND_TIME_ASSIGNMENT ( #38, #48, ( #146 ) ) ;
#81 = UNCERTAINTY_MEASURE_WITH_UNIT (LENGTH_MEASURE( 1.000000000000000100E-005 ), #133, 'distance_accuracy_value', 'NONE');
#82 = PERSON_AND_ORGANIZATION ( #166, #86 ) ;
#83 = LINE ( 'NONE', #33, #87 ) ;
#84 = CARTESIAN_POINT ( 'NONE',  ( 12.50000000000000000, 1.530808498934191500E-015, 1.500000000000000000 ) ) ;
#85 = DATE_TIME_ROLE ( 'classification_date' ) ;
#86 = ORGANIZATION ( 'UNSPECIFIED', 'UNSPECIFIED', '' ) ;
#87 = VECTOR ( 'NONE', #5, 1000.000000000000000 ) ;
#88 = DIRECTION ( 'NONE',  ( 0.0000000000000000000, 0.008726535498366857000, -0.9999619230641714200 ) ) ;
#89 = APPROVAL ( #70, 'UNSPECIFIED' ) ;
#90 = CC_DESIGN_DATE_AND_TIME_ASSIGNMENT ( #68, #85, ( #127 ) ) ;
#91 = APPLICATION_PROTOCOL_DEFINITION ( 'international standard', 'config_control_design', 1994, #119 ) ;
#92 = ORIENTED_EDGE ( 'NONE', *, *, #138, .T. ) ;
#93 = APPROVAL_PERSON_ORGANIZATION ( #46, #95, #109 ) ;
#94 = COORDINATED_UNIVERSAL_TIME_OFFSET ( 5, 0, .BEHIND. ) ;
#95 = APPROVAL ( #19, 'UNSPECIFIED' ) ;
#96 = CARTESIAN_POINT ( 'NONE',  ( -12.50000000000000000, 0.0000000000000000000, 1.390914152615603700 ) ) ;
#97 = DIRECTION ( 'NONE',  ( 0.0000000000000000000, 0.0000000000000000000, 1.000000000000000000 ) ) ;
#98 = SECURITY_CLASSIFICATION_LEVEL ( 'unclassified' ) ;
#99 = CARTESIAN_POINT ( 'NONE',  ( 12.50000000000000000, 1.530808498934191500E-015, -1.500000000000000000 ) ) ;
#100 = APPLICATION_PROTOCOL_DEFINITION ( 'international standard', 'config_control_design', 1994, #6 ) ;
#101 = CARTESIAN_POINT ( 'NONE',  ( -12.50000000000000500, -25.00000000000000000, 1.172742457846810900 ) ) ;
#102 = PERSON_AND_ORGANIZATION_ROLE ( 'design_owner' ) ;
#103 = PERSON_AND_ORGANIZATION ( #166, #86 ) ;
#104 = CC_DESIGN_APPROVAL ( #95, ( #127 ) ) ;
#105 = EDGE_LOOP ( 'NONE', ( #12, #4, #35, #140 ) ) ;
#106 = PERSON_AND_ORGANIZATION ( #166, #86 ) ;
#107 = PLANE ( 'NONE',  #37 ) ;
#108 = CARTESIAN_POINT ( 'NONE',  ( -12.50000000000000500, 25.00000000000000000, 1.609085847384396800 ) ) ;
#109 = APPROVAL_ROLE ( '' ) ;
#110 = APPROVAL_ROLE ( '' ) ;
#111 = ORIENTED_EDGE ( 'NONE', *, *, #136, .T. ) ;
#112 = MANIFOLD_SOLID_BREP ( 'Cut-Extrude1', #147 ) ;
#113 = ADVANCED_FACE ( 'NONE', ( #49 ), #168, .T. ) ;
#114 = PRODUCT ( 'Web Model 34412_34412', 'Web Model 34412_34412', '', ( #10 ) ) ;
#115 = ADVANCED_FACE ( 'NONE', ( #57 ), #1, .F. ) ;
#116 = CIRCLE ( 'NONE', #66, 12.50000000000000000 ) ;
#117 = DIRECTION ( 'NONE',  ( -1.000000000000000000, 0.0000000000000000000, 0.0000000000000000000 ) ) ;
#118 = CC_DESIGN_PERSON_AND_ORGANIZATION_ASSIGNMENT ( #106, #139, ( #39 ) ) ;
#119 = APPLICATION_CONTEXT ( 'configuration controlled 3d designs of mechanical parts and assemblies' ) ;
#120 = ORIENTED_EDGE ( 'NONE', *, *, #128, .F. ) ;
#121 = LOCAL_TIME ( 10, 36, 12.00000000000000000, #94 ) ;
#122 = CYLINDRICAL_SURFACE ( 'NONE', #155, 12.50000000000000000 ) ;
#123 = CARTESIAN_POINT ( 'NONE',  ( 0.0000000000000000000, 0.0000000000000000000, -1.500000000000000000 ) ) ;
#124 = CC_DESIGN_APPROVAL ( #158, ( #39 ) ) ;
#125 = CALENDAR_DATE ( 2017, 19, 12 ) ;
#126 = DIRECTION ( 'NONE',  ( -0.0000000000000000000, -0.0000000000000000000, -1.000000000000000000 ) ) ;
#127 = SECURITY_CLASSIFICATION ( '', '', #98 ) ;
#128 = EDGE_CURVE ( 'NONE', #11, #153, #21, .T. ) ;
#129 = PERSON_AND_ORGANIZATION ( #166, #86 ) ;
#130 = ORIENTED_EDGE ( 'NONE', *, *, #136, .F. ) ;
#131 = CARTESIAN_POINT ( 'NONE',  ( 12.50000000000001100, -25.00000000000000000, 1.172742457846810900 ) ) ;
#132 = DATE_AND_TIME ( #60, #135 ) ;
#133 =( LENGTH_UNIT ( ) NAMED_UNIT ( * ) SI_UNIT ( .MILLI., .METRE. ) );
#134 = EDGE_CURVE ( 'NONE', #79, #53, #27, .T. ) ;
#135 = LOCAL_TIME ( 10, 36, 12.00000000000000000, #173 ) ;
#136 = EDGE_CURVE ( 'NONE', #153, #11, #116, .T. ) ;
#137 = EDGE_LOOP ( 'NONE', ( #65, #52 ) ) ;
#138 = EDGE_CURVE ( 'NONE', #53, #153, #51, .T. ) ;
#139 = PERSON_AND_ORGANIZATION_ROLE ( 'creator' ) ;
#140 = ORIENTED_EDGE ( 'NONE', *, *, #128, .T. ) ;
#141 = DIRECTION ( 'NONE',  ( 1.000000000000000000, 0.0000000000000000000, 0.0000000000000000000 ) ) ;
#142 = CARTESIAN_POINT ( 'NONE',  ( 0.0000000000000000000, 0.0000000000000000000, 1.500000000000000000 ) ) ;
#143 = ORIENTED_EDGE ( 'NONE', *, *, #134, .T. ) ;
#144 = FACE_OUTER_BOUND ( 'NONE', #137, .T. ) ;
#145 = EDGE_CURVE ( 'NONE', #79, #11, #83, .T. ) ;
#146 = PRODUCT_DEFINITION ( 'UNKNOWN', '', #39, #14 ) ;
#147 = CLOSED_SHELL ( 'NONE', ( #170, #113, #115, #31 ) ) ;
#148 = CARTESIAN_POINT ( 'NONE',  ( 0.0000000000000000000, 0.0000000000000000000, -1.500000000000000000 ) ) ;
#149 = APPROVAL_DATE_TIME ( #132, #158 ) ;
#150 = PERSON_AND_ORGANIZATION_ROLE ( 'design_supplier' ) ;
#151 = ADVANCED_BREP_SHAPE_REPRESENTATION ( 'Web Model 34412_34412', ( #112, #44 ), #50 ) ;
#152 = APPROVAL_DATE_TIME ( #163, #95 ) ;
#153 = VERTEX_POINT ( 'NONE', #99 ) ;
#154 = DIRECTION ( 'NONE',  ( 0.0000000000000000000, 0.0000000000000000000, 1.000000000000000000 ) ) ;
#155 = AXIS2_PLACEMENT_3D ( 'NONE', #142, #156, #117 ) ;
#156 = DIRECTION ( 'NONE',  ( -0.0000000000000000000, -0.0000000000000000000, -1.000000000000000000 ) ) ;
#157 = VECTOR ( 'NONE', #71, 1000.000000000000000 ) ;
#158 = APPROVAL ( #25, 'UNSPECIFIED' ) ;
#159 = CALENDAR_DATE ( 2017, 19, 12 ) ;
#160 = CC_DESIGN_SECURITY_CLASSIFICATION ( #127, ( #39 ) ) ;
#161 = AXIS2_PLACEMENT_3D ( 'NONE', #123, #43, #16 ) ;
#162 = PERSON_AND_ORGANIZATION ( #166, #86 ) ;
#163 = DATE_AND_TIME ( #159, #18 ) ;
#164 = PERSON_AND_ORGANIZATION_ROLE ( 'classification_officer' ) ;
#165 = CARTESIAN_POINT ( 'NONE',  ( 12.50000000000000000, 1.530808498934191500E-015, 1.390914152615603700 ) ) ;
#166 = PERSON ( 'UNSPECIFIED', 'UNSPECIFIED', 'UNSPECIFIED', ('UNSPECIFIED'), ('UNSPECIFIED'), ('UNSPECIFIED') ) ;
#167 = APPROVAL_PERSON_ORGANIZATION ( #29, #89, #110 ) ;
#168 = CYLINDRICAL_SURFACE ( 'NONE', #41, 12.50000000000000000 ) ;
#169 = EDGE_CURVE ( 'NONE', #53, #79, #47, .T. ) ;
#170 = ADVANCED_FACE ( 'NONE', ( #62 ), #122, .T. ) ;
#171 = COORDINATED_UNIVERSAL_TIME_OFFSET ( 5, 0, .BEHIND. ) ;
#172 = DIRECTION ( 'NONE',  ( 1.000000000000000000, 0.0000000000000000000, 0.0000000000000000000 ) ) ;
#173 = COORDINATED_UNIVERSAL_TIME_OFFSET ( 5, 0, .BEHIND. ) ;
#174 = ORIENTED_EDGE ( 'NONE', *, *, #145, .F. ) ;
#175 = CC_DESIGN_APPROVAL ( #89, ( #146 ) ) ;
ENDSEC;
END-ISO-10303-21;
