ISO-10303-21;
HEADER;
FILE_DESCRIPTION (( 'STEP AP203' ),
    '1' );
FILE_NAME ('Web Model 18466_18472.step',
    '2021-09-13T19:06:37',
    ( '' ),
    ( '' ),
    'SwSTEP 2.0',
    'SolidWorks 2018',
    '' );
FILE_SCHEMA (( 'CONFIG_CONTROL_DESIGN' ));
ENDSEC;

DATA;
#1 = UNCERTAINTY_MEASURE_WITH_UNIT (LENGTH_MEASURE( 1.000000000000000082E-05 ), #67, 'distance_accuracy_value', 'NONE');
#2 = COORDINATED_UNIVERSAL_TIME_OFFSET ( 5, 0, .BEHIND. ) ;
#3 = AXIS2_PLACEMENT_3D ( 'NONE', #171, #146, #132 ) ;
#4 = VERTEX_POINT ( 'NONE', #86 ) ;
#5 = CYLINDRICAL_SURFACE ( 'NONE', #61, 25.39999999999999858 ) ;
#6 = PRODUCT ( 'Web Model 18466_18472', 'Web Model 18466_18472', '', ( #54 ) ) ;
#7 = CC_DESIGN_PERSON_AND_ORGANIZATION_ASSIGNMENT ( #43, #173, ( #113 ) ) ;
#8 = DIRECTION ( 'NONE',  ( 0.000000000000000000, 0.000000000000000000, 1.000000000000000000 ) ) ;
#9 = ADVANCED_FACE ( 'NONE', ( #44 ), #167, .T. ) ;
#10 = DIRECTION ( 'NONE',  ( -0.000000000000000000, -0.000000000000000000, -1.000000000000000000 ) ) ;
#11 = APPROVAL_STATUS ( 'not_yet_approved' ) ;
#12 = ADVANCED_FACE ( 'NONE', ( #136 ), #101, .T. ) ;
#13 = EDGE_CURVE ( 'NONE', #158, #147, #157, .T. ) ;
#14 = CC_DESIGN_APPROVAL ( #156, ( #113 ) ) ;
#15 = CALENDAR_DATE ( 2021, 13, 9 ) ;
#16 = ORIENTED_EDGE ( 'NONE', *, *, #143, .T. ) ;
#17 = ORIENTED_EDGE ( 'NONE', *, *, #137, .F. ) ;
#18 = CC_DESIGN_PERSON_AND_ORGANIZATION_ASSIGNMENT ( #89, #78, ( #6 ) ) ;
#19 = APPROVAL_PERSON_ORGANIZATION ( #56, #68, #159 ) ;
#20 = CLOSED_SHELL ( 'NONE', ( #33, #12, #9, #48 ) ) ;
#21 = LOCAL_TIME ( 15, 6, 37.00000000000000000, #93 ) ;
#22 = DIRECTION ( 'NONE',  ( -0.000000000000000000, -0.000000000000000000, -1.000000000000000000 ) ) ;
#23 = SECURITY_CLASSIFICATION ( '', '', #41 ) ;
#24 = CARTESIAN_POINT ( 'NONE',  ( 0.000000000000000000, 0.000000000000000000, 3.180000000000000160 ) ) ;
#25 = CARTESIAN_POINT ( 'NONE',  ( 25.39999999999999858, 3.110602869834276076E-15, 3.180000000000000160 ) ) ;
#26 = ORIENTED_EDGE ( 'NONE', *, *, #13, .T. ) ;
#27 = APPLICATION_CONTEXT ( 'configuration controlled 3d designs of mechanical parts and assemblies' ) ;
#28 = DIRECTION ( 'NONE',  ( 1.000000000000000000, 0.000000000000000000, 0.000000000000000000 ) ) ;
#29 = PERSON_AND_ORGANIZATION_ROLE ( 'creator' ) ;
#30 = DIRECTION ( 'NONE',  ( 1.000000000000000000, 0.000000000000000000, 0.000000000000000000 ) ) ;
#31 = PERSON_AND_ORGANIZATION_ROLE ( 'creator' ) ;
#32 = PRODUCT_RELATED_PRODUCT_CATEGORY ( 'detail', '', ( #6 ) ) ;
#33 = ADVANCED_FACE ( 'NONE', ( #66 ), #5, .T. ) ;
#34 = CALENDAR_DATE ( 2021, 13, 9 ) ;
#35 = ADVANCED_BREP_SHAPE_REPRESENTATION ( 'Web Model 18466_18472', ( #131, #166 ), #82 ) ;
#36 = DIRECTION ( 'NONE',  ( 1.000000000000000000, 0.000000000000000000, -0.000000000000000000 ) ) ;
#37 = CARTESIAN_POINT ( 'NONE',  ( 0.000000000000000000, 0.000000000000000000, 0.000000000000000000 ) ) ;
#38 = DATE_TIME_ROLE ( 'creation_date' ) ;
#39 = DIRECTION ( 'NONE',  ( -0.000000000000000000, -0.000000000000000000, -1.000000000000000000 ) ) ;
#40 = AXIS2_PLACEMENT_3D ( 'NONE', #24, #45, #88 ) ;
#41 = SECURITY_CLASSIFICATION_LEVEL ( 'unclassified' ) ;
#42 = PERSON_AND_ORGANIZATION ( #50, #96 ) ;
#43 = PERSON_AND_ORGANIZATION ( #50, #96 ) ;
#44 = FACE_OUTER_BOUND ( 'NONE', #92, .T. ) ;
#45 = DIRECTION ( 'NONE',  ( 0.000000000000000000, 0.000000000000000000, 1.000000000000000000 ) ) ;
#46 = PRODUCT_DEFINITION_SHAPE ( 'NONE', 'NONE',  #87 ) ;
#47 = CC_DESIGN_APPROVAL ( #108, ( #23 ) ) ;
#48 = ADVANCED_FACE ( 'NONE', ( #85 ), #151, .F. ) ;
#49 = CARTESIAN_POINT ( 'NONE',  ( 0.000000000000000000, 0.000000000000000000, 3.180000000000000160 ) ) ;
#50 = PERSON ( 'UNSPECIFIED', 'UNSPECIFIED', 'UNSPECIFIED', ('UNSPECIFIED'), ('UNSPECIFIED'), ('UNSPECIFIED') ) ;
#51 = DIRECTION ( 'NONE',  ( -1.000000000000000000, 0.000000000000000000, 0.000000000000000000 ) ) ;
#52 = ORIENTED_EDGE ( 'NONE', *, *, #140, .T. ) ;
#53 = CIRCLE ( 'NONE', #105, 25.39999999999999858 ) ;
#54 = MECHANICAL_CONTEXT ( 'NONE', #27, 'mechanical' ) ;
#55 = ORIENTED_EDGE ( 'NONE', *, *, #134, .T. ) ;
#56 = PERSON_AND_ORGANIZATION ( #50, #96 ) ;
#57 = EDGE_LOOP ( 'NONE', ( #109, #98 ) ) ;
#58 = SHAPE_DEFINITION_REPRESENTATION ( #46, #35 ) ;
#59 = CALENDAR_DATE ( 2021, 13, 9 ) ;
#60 = CC_DESIGN_DATE_AND_TIME_ASSIGNMENT ( #122, #38, ( #87 ) ) ;
#61 = AXIS2_PLACEMENT_3D ( 'NONE', #74, #10, #51 ) ;
#62 = CARTESIAN_POINT ( 'NONE',  ( 0.000000000000000000, 0.000000000000000000, 0.000000000000000000 ) ) ;
#63 = PERSON_AND_ORGANIZATION ( #50, #96 ) ;
#64 = AXIS2_PLACEMENT_3D ( 'NONE', #62, #170, #75 ) ;
#65 = CARTESIAN_POINT ( 'NONE',  ( -25.39999999999999858, 0.000000000000000000, 3.180000000000000160 ) ) ;
#66 = FACE_OUTER_BOUND ( 'NONE', #155, .T. ) ;
#67 =( LENGTH_UNIT ( ) NAMED_UNIT ( * ) SI_UNIT ( .MILLI., .METRE. ) );
#68 = APPROVAL ( #11, 'UNSPECIFIED' ) ;
#69 = APPROVAL_ROLE ( '' ) ;
#70 = CALENDAR_DATE ( 2021, 13, 9 ) ;
#71 = LOCAL_TIME ( 15, 6, 37.00000000000000000, #2 ) ;
#72 = EDGE_LOOP ( 'NONE', ( #120, #17, #26, #55 ) ) ;
#73 = ORIENTED_EDGE ( 'NONE', *, *, #160, .T. ) ;
#74 = CARTESIAN_POINT ( 'NONE',  ( 0.000000000000000000, 0.000000000000000000, 3.180000000000000160 ) ) ;
#75 = DIRECTION ( 'NONE',  ( 1.000000000000000000, 0.000000000000000000, 0.000000000000000000 ) ) ;
#76 = PERSON_AND_ORGANIZATION ( #50, #96 ) ;
#77 = DIRECTION ( 'NONE',  ( 0.000000000000000000, 0.000000000000000000, 1.000000000000000000 ) ) ;
#78 = PERSON_AND_ORGANIZATION_ROLE ( 'design_owner' ) ;
#79 = APPROVAL_STATUS ( 'not_yet_approved' ) ;
#80 = ORIENTED_EDGE ( 'NONE', *, *, #137, .T. ) ;
#81 = VECTOR ( 'NONE', #144, 1000.000000000000000 ) ;
#82 =( GEOMETRIC_REPRESENTATION_CONTEXT ( 3 ) GLOBAL_UNCERTAINTY_ASSIGNED_CONTEXT ( ( #1 ) ) GLOBAL_UNIT_ASSIGNED_CONTEXT ( ( #67, #114, #169 ) ) REPRESENTATION_CONTEXT ( 'NONE', 'WORKASPACE' ) );
#83 = AXIS2_PLACEMENT_3D ( 'NONE', #126, #22, #102 ) ;
#84 = DATE_AND_TIME ( #59, #95 ) ;
#85 = FACE_OUTER_BOUND ( 'NONE', #57, .T. ) ;
#86 = CARTESIAN_POINT ( 'NONE',  ( 25.39999999999999858, 3.110602869834276076E-15, 3.180000000000000160 ) ) ;
#87 = PRODUCT_DEFINITION ( 'UNKNOWN', '', #113, #129 ) ;
#88 = DIRECTION ( 'NONE',  ( 1.000000000000000000, 0.000000000000000000, -0.000000000000000000 ) ) ;
#89 = PERSON_AND_ORGANIZATION ( #50, #96 ) ;
#90 = CALENDAR_DATE ( 2021, 13, 9 ) ;
#91 = CARTESIAN_POINT ( 'NONE',  ( 0.000000000000000000, 0.000000000000000000, 0.000000000000000000 ) ) ;
#92 = EDGE_LOOP ( 'NONE', ( #80, #52 ) ) ;
#93 = COORDINATED_UNIVERSAL_TIME_OFFSET ( 5, 0, .BEHIND. ) ;
#94 = APPROVAL_ROLE ( '' ) ;
#95 = LOCAL_TIME ( 15, 6, 37.00000000000000000, #111 ) ;
#96 = ORGANIZATION ( 'UNSPECIFIED', 'UNSPECIFIED', '' ) ;
#97 = AXIS2_PLACEMENT_3D ( 'NONE', #37, #8, #36 ) ;
#98 = ORIENTED_EDGE ( 'NONE', *, *, #160, .F. ) ;
#99 = APPROVAL_DATE_TIME ( #138, #68 ) ;
#100 = CC_DESIGN_PERSON_AND_ORGANIZATION_ASSIGNMENT ( #42, #31, ( #113 ) ) ;
#101 = CYLINDRICAL_SURFACE ( 'NONE', #83, 25.39999999999999858 ) ;
#102 = DIRECTION ( 'NONE',  ( -1.000000000000000000, 0.000000000000000000, 0.000000000000000000 ) ) ;
#103 = DIRECTION ( 'NONE',  ( 1.000000000000000000, 0.000000000000000000, 0.000000000000000000 ) ) ;
#104 = CARTESIAN_POINT ( 'NONE',  ( 25.39999999999999858, 3.110602869834276076E-15, 0.000000000000000000 ) ) ;
#105 = AXIS2_PLACEMENT_3D ( 'NONE', #91, #77, #103 ) ;
#106 = DATE_TIME_ROLE ( 'classification_date' ) ;
#107 = COORDINATED_UNIVERSAL_TIME_OFFSET ( 5, 0, .BEHIND. ) ;
#108 = APPROVAL ( #163, 'UNSPECIFIED' ) ;
#109 = ORIENTED_EDGE ( 'NONE', *, *, #134, .F. ) ;
#110 = VECTOR ( 'NONE', #39, 1000.000000000000000 ) ;
#111 = COORDINATED_UNIVERSAL_TIME_OFFSET ( 5, 0, .BEHIND. ) ;
#112 = CC_DESIGN_PERSON_AND_ORGANIZATION_ASSIGNMENT ( #63, #175, ( #23 ) ) ;
#113 = PRODUCT_DEFINITION_FORMATION_WITH_SPECIFIED_SOURCE ( 'ANY', '', #6, .NOT_KNOWN. ) ;
#114 =( NAMED_UNIT ( * ) PLANE_ANGLE_UNIT ( ) SI_UNIT ( $, .RADIAN. ) );
#115 = CARTESIAN_POINT ( 'NONE',  ( 0.000000000000000000, 0.000000000000000000, 0.000000000000000000 ) ) ;
#116 = CARTESIAN_POINT ( 'NONE',  ( -25.39999999999999858, 0.000000000000000000, 0.000000000000000000 ) ) ;
#117 = LINE ( 'NONE', #25, #81 ) ;
#118 = APPLICATION_PROTOCOL_DEFINITION ( 'international standard', 'config_control_design', 1994, #150 ) ;
#119 = CC_DESIGN_DATE_AND_TIME_ASSIGNMENT ( #172, #106, ( #23 ) ) ;
#120 = ORIENTED_EDGE ( 'NONE', *, *, #143, .F. ) ;
#121 = CIRCLE ( 'NONE', #3, 25.39999999999999858 ) ;
#122 = DATE_AND_TIME ( #15, #21 ) ;
#123 = VERTEX_POINT ( 'NONE', #104 ) ;
#124 = APPROVAL_DATE_TIME ( #84, #108 ) ;
#125 = CC_DESIGN_PERSON_AND_ORGANIZATION_ASSIGNMENT ( #128, #29, ( #87 ) ) ;
#126 = CARTESIAN_POINT ( 'NONE',  ( 0.000000000000000000, 0.000000000000000000, 3.180000000000000160 ) ) ;
#127 = CC_DESIGN_SECURITY_CLASSIFICATION ( #23, ( #113 ) ) ;
#128 = PERSON_AND_ORGANIZATION ( #50, #96 ) ;
#129 = DESIGN_CONTEXT ( 'detailed design', #150, 'design' ) ;
#130 = APPROVAL_PERSON_ORGANIZATION ( #164, #108, #94 ) ;
#131 = MANIFOLD_SOLID_BREP ( 'Boss-Extrude1', #20 ) ;
#132 = DIRECTION ( 'NONE',  ( 1.000000000000000000, 0.000000000000000000, 0.000000000000000000 ) ) ;
#133 = APPLICATION_PROTOCOL_DEFINITION ( 'international standard', 'config_control_design', 1994, #27 ) ;
#134 = EDGE_CURVE ( 'NONE', #147, #123, #53, .T. ) ;
#135 = LOCAL_TIME ( 15, 6, 37.00000000000000000, #107 ) ;
#136 = FACE_OUTER_BOUND ( 'NONE', #72, .T. ) ;
#137 = EDGE_CURVE ( 'NONE', #158, #4, #121, .T. ) ;
#138 = DATE_AND_TIME ( #90, #142 ) ;
#139 = APPROVAL_DATE_TIME ( #165, #156 ) ;
#140 = EDGE_CURVE ( 'NONE', #4, #158, #145, .T. ) ;
#141 = AXIS2_PLACEMENT_3D ( 'NONE', #49, #162, #30 ) ;
#142 = LOCAL_TIME ( 15, 6, 37.00000000000000000, #152 ) ;
#143 = EDGE_CURVE ( 'NONE', #4, #123, #117, .T. ) ;
#144 = DIRECTION ( 'NONE',  ( -0.000000000000000000, -0.000000000000000000, -1.000000000000000000 ) ) ;
#145 = CIRCLE ( 'NONE', #141, 25.39999999999999858 ) ;
#146 = DIRECTION ( 'NONE',  ( 0.000000000000000000, 0.000000000000000000, 1.000000000000000000 ) ) ;
#147 = VERTEX_POINT ( 'NONE', #116 ) ;
#148 = CARTESIAN_POINT ( 'NONE',  ( -25.39999999999999858, 0.000000000000000000, 3.180000000000000160 ) ) ;
#149 = APPROVAL_PERSON_ORGANIZATION ( #76, #156, #69 ) ;
#150 = APPLICATION_CONTEXT ( 'configuration controlled 3d designs of mechanical parts and assemblies' ) ;
#151 = PLANE ( 'NONE',  #97 ) ;
#152 = COORDINATED_UNIVERSAL_TIME_OFFSET ( 5, 0, .BEHIND. ) ;
#153 = CIRCLE ( 'NONE', #64, 25.39999999999999858 ) ;
#154 = ORIENTED_EDGE ( 'NONE', *, *, #140, .F. ) ;
#155 = EDGE_LOOP ( 'NONE', ( #154, #16, #73, #168 ) ) ;
#156 = APPROVAL ( #79, 'UNSPECIFIED' ) ;
#157 = LINE ( 'NONE', #65, #110 ) ;
#158 = VERTEX_POINT ( 'NONE', #148 ) ;
#159 = APPROVAL_ROLE ( '' ) ;
#160 = EDGE_CURVE ( 'NONE', #123, #147, #153, .T. ) ;
#161 = DIRECTION ( 'NONE',  ( 0.000000000000000000, 0.000000000000000000, 1.000000000000000000 ) ) ;
#162 = DIRECTION ( 'NONE',  ( 0.000000000000000000, 0.000000000000000000, 1.000000000000000000 ) ) ;
#163 = APPROVAL_STATUS ( 'not_yet_approved' ) ;
#164 = PERSON_AND_ORGANIZATION ( #50, #96 ) ;
#165 = DATE_AND_TIME ( #70, #135 ) ;
#166 = AXIS2_PLACEMENT_3D ( 'NONE', #115, #161, #28 ) ;
#167 = PLANE ( 'NONE',  #40 ) ;
#168 = ORIENTED_EDGE ( 'NONE', *, *, #13, .F. ) ;
#169 =( NAMED_UNIT ( * ) SI_UNIT ( $, .STERADIAN. ) SOLID_ANGLE_UNIT ( ) );
#170 = DIRECTION ( 'NONE',  ( 0.000000000000000000, 0.000000000000000000, 1.000000000000000000 ) ) ;
#171 = CARTESIAN_POINT ( 'NONE',  ( 0.000000000000000000, 0.000000000000000000, 3.180000000000000160 ) ) ;
#172 = DATE_AND_TIME ( #34, #71 ) ;
#173 = PERSON_AND_ORGANIZATION_ROLE ( 'design_supplier' ) ;
#174 = CC_DESIGN_APPROVAL ( #68, ( #87 ) ) ;
#175 = PERSON_AND_ORGANIZATION_ROLE ( 'classification_officer' ) ;
ENDSEC;
END-ISO-10303-21;
