ISO-10303-21;
HEADER;
FILE_DESCRIPTION (( 'STEP AP203' ),
    '1' );
FILE_NAME ('Web Model 19837_19860.step',
    '2022-04-06T15:04:27',
    ( 'WC' ),
    ( 'Windows Central' ),
    'SwSTEP 2.0',
    'SolidWorks 2021',
    '' );
FILE_SCHEMA (( 'CONFIG_CONTROL_DESIGN' ));
ENDSEC;

DATA;
#1 = CIRCLE ( 'NONE', #24, 12.50000000000000000 ) ;
#2 = DIRECTION ( 'NONE',  ( 1.000000000000000000, 0.000000000000000000, 0.000000000000000000 ) ) ;
#3 = CARTESIAN_POINT ( 'NONE',  ( 12.50000000000000000, 1.530808498934191521E-15, 4.000000000000000000 ) ) ;
#4 = DIRECTION ( 'NONE',  ( 0.000000000000000000, 0.000000000000000000, 1.000000000000000000 ) ) ;
#5 = DIRECTION ( 'NONE',  ( 0.000000000000000000, 0.000000000000000000, 1.000000000000000000 ) ) ;
#6 = ORIENTED_EDGE ( 'NONE', *, *, #57, .T. ) ;
#7 = DATE_AND_TIME ( #123, #33 ) ;
#8 = CARTESIAN_POINT ( 'NONE',  ( -12.50000000000000000, 0.000000000000000000, 4.000000000000000000 ) ) ;
#9 = PERSON_AND_ORGANIZATION_ROLE ( 'classification_officer' ) ;
#10 = CLOSED_SHELL ( 'NONE', ( #171, #19, #83, #109 ) ) ;
#11 = PERSON_AND_ORGANIZATION ( #173, #87 ) ;
#12 = EDGE_CURVE ( 'NONE', #164, #15, #139, .T. ) ;
#13 = VECTOR ( 'NONE', #166, 1000.000000000000000 ) ;
#14 = EDGE_LOOP ( 'NONE', ( #41, #101 ) ) ;
#15 = VERTEX_POINT ( 'NONE', #150 ) ;
#16 = ORIENTED_EDGE ( 'NONE', *, *, #12, .F. ) ;
#17 = APPROVAL_ROLE ( '' ) ;
#18 = LINE ( 'NONE', #8, #13 ) ;
#19 = ADVANCED_FACE ( 'NONE', ( #90 ), #75, .T. ) ;
#20 = APPLICATION_PROTOCOL_DEFINITION ( 'international standard', 'config_control_design', 1994, #138 ) ;
#21 = CC_DESIGN_DATE_AND_TIME_ASSIGNMENT ( #52, #107, ( #140 ) ) ;
#22 = APPROVAL_DATE_TIME ( #99, #110 ) ;
#23 = FACE_OUTER_BOUND ( 'NONE', #14, .T. ) ;
#24 = AXIS2_PLACEMENT_3D ( 'NONE', #113, #4, #163 ) ;
#25 = ORIENTED_EDGE ( 'NONE', *, *, #147, .F. ) ;
#26 = ORIENTED_EDGE ( 'NONE', *, *, #158, .T. ) ;
#27 = VECTOR ( 'NONE', #137, 1000.000000000000000 ) ;
#28 = CARTESIAN_POINT ( 'NONE',  ( 0.000000000000000000, 0.000000000000000000, 0.000000000000000000 ) ) ;
#29 = APPLICATION_CONTEXT ( 'configuration controlled 3d designs of mechanical parts and assemblies' ) ;
#30 = EDGE_LOOP ( 'NONE', ( #25, #77, #26, #6 ) ) ;
#31 = AXIS2_PLACEMENT_3D ( 'NONE', #78, #81, #48 ) ;
#32 = PRODUCT ( 'Web Model 19837_19860', 'Web Model 19837_19860', '', ( #84 ) ) ;
#33 = LOCAL_TIME ( 11, 4, 27.00000000000000000, #80 ) ;
#34 = CALENDAR_DATE ( 2022, 6, 4 ) ;
#35 = DIRECTION ( 'NONE',  ( 1.000000000000000000, 0.000000000000000000, -0.000000000000000000 ) ) ;
#36 = DIRECTION ( 'NONE',  ( -0.000000000000000000, -0.000000000000000000, -1.000000000000000000 ) ) ;
#37 = DIRECTION ( 'NONE',  ( 0.000000000000000000, 0.000000000000000000, 1.000000000000000000 ) ) ;
#38 = COORDINATED_UNIVERSAL_TIME_OFFSET ( 5, 0, .BEHIND. ) ;
#39 = EDGE_CURVE ( 'NONE', #43, #161, #1, .T. ) ;
#40 = ORIENTED_EDGE ( 'NONE', *, *, #12, .T. ) ;
#41 = ORIENTED_EDGE ( 'NONE', *, *, #39, .T. ) ;
#42 = CARTESIAN_POINT ( 'NONE',  ( 12.50000000000000000, 1.530808498934191521E-15, 0.000000000000000000 ) ) ;
#43 = VERTEX_POINT ( 'NONE', #60 ) ;
#44 = AXIS2_PLACEMENT_3D ( 'NONE', #100, #146, #2 ) ;
#45 = PRODUCT_RELATED_PRODUCT_CATEGORY ( 'detail', '', ( #32 ) ) ;
#46 = PERSON_AND_ORGANIZATION_ROLE ( 'design_supplier' ) ;
#47 = DATE_AND_TIME ( #168, #128 ) ;
#48 = DIRECTION ( 'NONE',  ( -1.000000000000000000, 0.000000000000000000, 0.000000000000000000 ) ) ;
#49 = CC_DESIGN_PERSON_AND_ORGANIZATION_ASSIGNMENT ( #165, #106, ( #175 ) ) ;
#50 = PERSON_AND_ORGANIZATION ( #173, #87 ) ;
#51 = CALENDAR_DATE ( 2022, 6, 4 ) ;
#52 = DATE_AND_TIME ( #51, #56 ) ;
#53 = ADVANCED_BREP_SHAPE_REPRESENTATION ( 'Web Model 19837_19860', ( #143, #162 ), #160 ) ;
#54 = APPLICATION_PROTOCOL_DEFINITION ( 'international standard', 'config_control_design', 1994, #29 ) ;
#55 = APPROVAL ( #142, 'UNSPECIFIED' ) ;
#56 = LOCAL_TIME ( 11, 4, 27.00000000000000000, #116 ) ;
#57 = EDGE_CURVE ( 'NONE', #15, #164, #108, .T. ) ;
#58 = APPROVAL_PERSON_ORGANIZATION ( #50, #110, #133 ) ;
#59 =( NAMED_UNIT ( * ) SI_UNIT ( $, .STERADIAN. ) SOLID_ANGLE_UNIT ( ) );
#60 = CARTESIAN_POINT ( 'NONE',  ( -12.50000000000000000, 0.000000000000000000, 4.000000000000000000 ) ) ;
#61 = APPROVAL_DATE_TIME ( #7, #97 ) ;
#62 = CARTESIAN_POINT ( 'NONE',  ( 12.50000000000000000, 1.530808498934191521E-15, 4.000000000000000000 ) ) ;
#63 = AXIS2_PLACEMENT_3D ( 'NONE', #92, #135, #114 ) ;
#64 = LINE ( 'NONE', #62, #27 ) ;
#65 = DATE_TIME_ROLE ( 'classification_date' ) ;
#66 = AXIS2_PLACEMENT_3D ( 'NONE', #131, #5, #82 ) ;
#67 = PERSON_AND_ORGANIZATION_ROLE ( 'creator' ) ;
#68 = EDGE_CURVE ( 'NONE', #161, #43, #98, .T. ) ;
#69 = APPROVAL_STATUS ( 'not_yet_approved' ) ;
#70 = PERSON_AND_ORGANIZATION ( #173, #87 ) ;
#71 = FACE_OUTER_BOUND ( 'NONE', #104, .T. ) ;
#72 = CALENDAR_DATE ( 2022, 6, 4 ) ;
#73 = SHAPE_DEFINITION_REPRESENTATION ( #141, #53 ) ;
#74 = CC_DESIGN_SECURITY_CLASSIFICATION ( #130, ( #175 ) ) ;
#75 = CYLINDRICAL_SURFACE ( 'NONE', #105, 12.50000000000000000 ) ;
#76 = UNCERTAINTY_MEASURE_WITH_UNIT (LENGTH_MEASURE( 1.000000000000000082E-05 ), #155, 'distance_accuracy_value', 'NONE');
#77 = ORIENTED_EDGE ( 'NONE', *, *, #39, .F. ) ;
#78 = CARTESIAN_POINT ( 'NONE',  ( 0.000000000000000000, 0.000000000000000000, 4.000000000000000000 ) ) ;
#79 = CC_DESIGN_PERSON_AND_ORGANIZATION_ASSIGNMENT ( #115, #46, ( #175 ) ) ;
#80 = COORDINATED_UNIVERSAL_TIME_OFFSET ( 5, 0, .BEHIND. ) ;
#81 = DIRECTION ( 'NONE',  ( -0.000000000000000000, -0.000000000000000000, -1.000000000000000000 ) ) ;
#82 = DIRECTION ( 'NONE',  ( 1.000000000000000000, 0.000000000000000000, -0.000000000000000000 ) ) ;
#83 = ADVANCED_FACE ( 'NONE', ( #23 ), #86, .T. ) ;
#84 = MECHANICAL_CONTEXT ( 'NONE', #29, 'mechanical' ) ;
#85 = PERSON_AND_ORGANIZATION ( #173, #87 ) ;
#86 = PLANE ( 'NONE',  #167 ) ;
#87 = ORGANIZATION ( 'UNSPECIFIED', 'UNSPECIFIED', '' ) ;
#88 = DESIGN_CONTEXT ( 'detailed design', #138, 'design' ) ;
#89 = EDGE_LOOP ( 'NONE', ( #122, #132, #40, #112 ) ) ;
#90 = FACE_OUTER_BOUND ( 'NONE', #30, .T. ) ;
#91 = CYLINDRICAL_SURFACE ( 'NONE', #31, 12.50000000000000000 ) ;
#92 = CARTESIAN_POINT ( 'NONE',  ( 0.000000000000000000, 0.000000000000000000, 0.000000000000000000 ) ) ;
#93 = CC_DESIGN_APPROVAL ( #55, ( #140 ) ) ;
#94 = COORDINATED_UNIVERSAL_TIME_OFFSET ( 5, 0, .BEHIND. ) ;
#95 = PERSON_AND_ORGANIZATION ( #173, #87 ) ;
#96 = APPROVAL_STATUS ( 'not_yet_approved' ) ;
#97 = APPROVAL ( #96, 'UNSPECIFIED' ) ;
#98 = CIRCLE ( 'NONE', #44, 12.50000000000000000 ) ;
#99 = DATE_AND_TIME ( #34, #149 ) ;
#100 = CARTESIAN_POINT ( 'NONE',  ( 0.000000000000000000, 0.000000000000000000, 4.000000000000000000 ) ) ;
#101 = ORIENTED_EDGE ( 'NONE', *, *, #68, .T. ) ;
#102 = APPROVAL_PERSON_ORGANIZATION ( #154, #97, #17 ) ;
#103 = DIRECTION ( 'NONE',  ( 1.000000000000000000, 0.000000000000000000, 0.000000000000000000 ) ) ;
#104 = EDGE_LOOP ( 'NONE', ( #152, #16 ) ) ;
#105 = AXIS2_PLACEMENT_3D ( 'NONE', #134, #36, #121 ) ;
#106 = PERSON_AND_ORGANIZATION_ROLE ( 'creator' ) ;
#107 = DATE_TIME_ROLE ( 'creation_date' ) ;
#108 = CIRCLE ( 'NONE', #63, 12.50000000000000000 ) ;
#109 = ADVANCED_FACE ( 'NONE', ( #71 ), #145, .F. ) ;
#110 = APPROVAL ( #69, 'UNSPECIFIED' ) ;
#111 = CARTESIAN_POINT ( 'NONE',  ( 0.000000000000000000, 0.000000000000000000, 4.000000000000000000 ) ) ;
#112 = ORIENTED_EDGE ( 'NONE', *, *, #158, .F. ) ;
#113 = CARTESIAN_POINT ( 'NONE',  ( 0.000000000000000000, 0.000000000000000000, 4.000000000000000000 ) ) ;
#114 = DIRECTION ( 'NONE',  ( 1.000000000000000000, 0.000000000000000000, 0.000000000000000000 ) ) ;
#115 = PERSON_AND_ORGANIZATION ( #173, #87 ) ;
#116 = COORDINATED_UNIVERSAL_TIME_OFFSET ( 5, 0, .BEHIND. ) ;
#117 = DIRECTION ( 'NONE',  ( 0.000000000000000000, 0.000000000000000000, 1.000000000000000000 ) ) ;
#118 = PERSON_AND_ORGANIZATION_ROLE ( 'design_owner' ) ;
#119 = DATE_AND_TIME ( #72, #148 ) ;
#120 = CC_DESIGN_APPROVAL ( #110, ( #130 ) ) ;
#121 = DIRECTION ( 'NONE',  ( -1.000000000000000000, 0.000000000000000000, 0.000000000000000000 ) ) ;
#122 = ORIENTED_EDGE ( 'NONE', *, *, #68, .F. ) ;
#123 = CALENDAR_DATE ( 2022, 6, 4 ) ;
#124 =( NAMED_UNIT ( * ) PLANE_ANGLE_UNIT ( ) SI_UNIT ( $, .RADIAN. ) );
#125 = APPROVAL_PERSON_ORGANIZATION ( #85, #55, #174 ) ;
#126 = AXIS2_PLACEMENT_3D ( 'NONE', #28, #151, #103 ) ;
#127 = APPROVAL_DATE_TIME ( #119, #55 ) ;
#128 = LOCAL_TIME ( 11, 4, 27.00000000000000000, #94 ) ;
#129 = COORDINATED_UNIVERSAL_TIME_OFFSET ( 5, 0, .BEHIND. ) ;
#130 = SECURITY_CLASSIFICATION ( '', '', #153 ) ;
#131 = CARTESIAN_POINT ( 'NONE',  ( 0.000000000000000000, 0.000000000000000000, 0.000000000000000000 ) ) ;
#132 = ORIENTED_EDGE ( 'NONE', *, *, #147, .T. ) ;
#133 = APPROVAL_ROLE ( '' ) ;
#134 = CARTESIAN_POINT ( 'NONE',  ( 0.000000000000000000, 0.000000000000000000, 4.000000000000000000 ) ) ;
#135 = DIRECTION ( 'NONE',  ( 0.000000000000000000, 0.000000000000000000, 1.000000000000000000 ) ) ;
#136 = CC_DESIGN_APPROVAL ( #97, ( #175 ) ) ;
#137 = DIRECTION ( 'NONE',  ( -0.000000000000000000, -0.000000000000000000, -1.000000000000000000 ) ) ;
#138 = APPLICATION_CONTEXT ( 'configuration controlled 3d designs of mechanical parts and assemblies' ) ;
#139 = CIRCLE ( 'NONE', #126, 12.50000000000000000 ) ;
#140 = PRODUCT_DEFINITION ( 'UNKNOWN', '', #175, #88 ) ;
#141 = PRODUCT_DEFINITION_SHAPE ( 'NONE', 'NONE',  #140 ) ;
#142 = APPROVAL_STATUS ( 'not_yet_approved' ) ;
#143 = MANIFOLD_SOLID_BREP ( 'Boss-Extrude1', #10 ) ;
#144 = CARTESIAN_POINT ( 'NONE',  ( 0.000000000000000000, 0.000000000000000000, 0.000000000000000000 ) ) ;
#145 = PLANE ( 'NONE',  #66 ) ;
#146 = DIRECTION ( 'NONE',  ( 0.000000000000000000, 0.000000000000000000, 1.000000000000000000 ) ) ;
#147 = EDGE_CURVE ( 'NONE', #161, #164, #64, .T. ) ;
#148 = LOCAL_TIME ( 11, 4, 27.00000000000000000, #129 ) ;
#149 = LOCAL_TIME ( 11, 4, 27.00000000000000000, #38 ) ;
#150 = CARTESIAN_POINT ( 'NONE',  ( -12.50000000000000000, 0.000000000000000000, 0.000000000000000000 ) ) ;
#151 = DIRECTION ( 'NONE',  ( 0.000000000000000000, 0.000000000000000000, 1.000000000000000000 ) ) ;
#152 = ORIENTED_EDGE ( 'NONE', *, *, #57, .F. ) ;
#153 = SECURITY_CLASSIFICATION_LEVEL ( 'unclassified' ) ;
#154 = PERSON_AND_ORGANIZATION ( #173, #87 ) ;
#155 =( LENGTH_UNIT ( ) NAMED_UNIT ( * ) SI_UNIT ( .MILLI., .METRE. ) );
#156 = CC_DESIGN_PERSON_AND_ORGANIZATION_ASSIGNMENT ( #11, #67, ( #140 ) ) ;
#157 = CC_DESIGN_PERSON_AND_ORGANIZATION_ASSIGNMENT ( #70, #118, ( #32 ) ) ;
#158 = EDGE_CURVE ( 'NONE', #43, #15, #18, .T. ) ;
#159 = DIRECTION ( 'NONE',  ( 1.000000000000000000, 0.000000000000000000, 0.000000000000000000 ) ) ;
#160 =( GEOMETRIC_REPRESENTATION_CONTEXT ( 3 ) GLOBAL_UNCERTAINTY_ASSIGNED_CONTEXT ( ( #76 ) ) GLOBAL_UNIT_ASSIGNED_CONTEXT ( ( #155, #124, #59 ) ) REPRESENTATION_CONTEXT ( 'NONE', 'WORKASPACE' ) );
#161 = VERTEX_POINT ( 'NONE', #3 ) ;
#162 = AXIS2_PLACEMENT_3D ( 'NONE', #144, #117, #159 ) ;
#163 = DIRECTION ( 'NONE',  ( 1.000000000000000000, 0.000000000000000000, 0.000000000000000000 ) ) ;
#164 = VERTEX_POINT ( 'NONE', #42 ) ;
#165 = PERSON_AND_ORGANIZATION ( #173, #87 ) ;
#166 = DIRECTION ( 'NONE',  ( -0.000000000000000000, -0.000000000000000000, -1.000000000000000000 ) ) ;
#167 = AXIS2_PLACEMENT_3D ( 'NONE', #111, #37, #35 ) ;
#168 = CALENDAR_DATE ( 2022, 6, 4 ) ;
#169 = CC_DESIGN_PERSON_AND_ORGANIZATION_ASSIGNMENT ( #95, #9, ( #130 ) ) ;
#170 = FACE_OUTER_BOUND ( 'NONE', #89, .T. ) ;
#171 = ADVANCED_FACE ( 'NONE', ( #170 ), #91, .T. ) ;
#172 = CC_DESIGN_DATE_AND_TIME_ASSIGNMENT ( #47, #65, ( #130 ) ) ;
#173 = PERSON ( 'UNSPECIFIED', 'UNSPECIFIED', 'UNSPECIFIED', ('UNSPECIFIED'), ('UNSPECIFIED'), ('UNSPECIFIED') ) ;
#174 = APPROVAL_ROLE ( '' ) ;
#175 = PRODUCT_DEFINITION_FORMATION_WITH_SPECIFIED_SOURCE ( 'ANY', '', #32, .NOT_KNOWN. ) ;
ENDSEC;
END-ISO-10303-21;
