ISO-10303-21;
HEADER;
FILE_DESCRIPTION (( 'STEP AP203' ),
    '1' );
FILE_NAME ('Web Model 87705_15973.step',
    '2020-10-07T17:42:02',
    ( '' ),
    ( '' ),
    'SwSTEP 2.0',
    'SolidWorks 2018',
    '' );
FILE_SCHEMA (( 'CONFIG_CONTROL_DESIGN' ));
ENDSEC;

DATA;
#1 = APPROVAL_PERSON_ORGANIZATION ( #137, #140, #175 ) ;
#2 = PRODUCT_RELATED_PRODUCT_CATEGORY ( 'detail', '', ( #26 ) ) ;
#3 = ADVANCED_FACE ( 'NONE', ( #40 ), #166, .T. ) ;
#4 = FACE_OUTER_BOUND ( 'NONE', #54, .T. ) ;
#5 = CARTESIAN_POINT ( 'NONE',  ( -37.50000000000000711, 0.0000000000000000000, 5.000000000000000000 ) ) ;
#6 = CARTESIAN_POINT ( 'NONE',  ( 0.0000000000000000000, 0.0000000000000000000, 5.000000000000000000 ) ) ;
#7 = CC_DESIGN_DATE_AND_TIME_ASSIGNMENT ( #56, #39, ( #113 ) ) ;
#8 = CARTESIAN_POINT ( 'NONE',  ( 0.0000000000000000000, 0.0000000000000000000, 0.0000000000000000000 ) ) ;
#9 = EDGE_LOOP ( 'NONE', ( #119, #20, #97, #154 ) ) ;
#10 = DIRECTION ( 'NONE',  ( 0.0000000000000000000, 0.0000000000000000000, 1.000000000000000000 ) ) ;
#11 = DIRECTION ( 'NONE',  ( 0.0000000000000000000, 0.0000000000000000000, 1.000000000000000000 ) ) ;
#12 = CIRCLE ( 'NONE', #73, 37.50000000000000711 ) ;
#13 = ADVANCED_BREP_SHAPE_REPRESENTATION ( 'Web Model 87705_15973', ( #69, #158 ), #43 ) ;
#14 = EDGE_LOOP ( 'NONE', ( #121, #68, #72, #94 ) ) ;
#15 = UNCERTAINTY_MEASURE_WITH_UNIT (LENGTH_MEASURE( 1.000000000000000082E-05 ), #90, 'distance_accuracy_value', 'NONE');
#16 = PERSON_AND_ORGANIZATION ( #24, #130 ) ;
#17 = CC_DESIGN_PERSON_AND_ORGANIZATION_ASSIGNMENT ( #57, #135, ( #26 ) ) ;
#18 = CC_DESIGN_APPROVAL ( #140, ( #124 ) ) ;
#19 = PERSON_AND_ORGANIZATION ( #24, #130 ) ;
#20 = ORIENTED_EDGE ( 'NONE', *, *, #46, .T. ) ;
#21 = APPROVAL_DATE_TIME ( #134, #95 ) ;
#22 = DIRECTION ( 'NONE',  ( 1.000000000000000000, 0.0000000000000000000, 0.0000000000000000000 ) ) ;
#23 = APPROVAL_STATUS ( 'not_yet_approved' ) ;
#24 = PERSON ( 'UNSPECIFIED', 'UNSPECIFIED', 'UNSPECIFIED', ('UNSPECIFIED'), ('UNSPECIFIED'), ('UNSPECIFIED') ) ;
#25 = APPLICATION_PROTOCOL_DEFINITION ( 'international standard', 'config_control_design', 1994, #74 ) ;
#26 = PRODUCT ( 'Web Model 87705_15973', 'Web Model 87705_15973', '', ( #62 ) ) ;
#27 = PERSON_AND_ORGANIZATION ( #24, #130 ) ;
#28 = PRODUCT_DEFINITION_FORMATION_WITH_SPECIFIED_SOURCE ( 'ANY', '', #26, .NOT_KNOWN. ) ;
#29 = DESIGN_CONTEXT ( 'detailed design', #74, 'design' ) ;
#30 = AXIS2_PLACEMENT_3D ( 'NONE', #47, #115, #116 ) ;
#31 = DATE_AND_TIME ( #157, #67 ) ;
#32 = LINE ( 'NONE', #83, #81 ) ;
#33 = ADVANCED_FACE ( 'NONE', ( #105 ), #173, .T. ) ;
#34 = AXIS2_PLACEMENT_3D ( 'NONE', #171, #170, #161 ) ;
#35 = DIRECTION ( 'NONE',  ( 1.000000000000000000, 0.0000000000000000000, 0.0000000000000000000 ) ) ;
#36 = COORDINATED_UNIVERSAL_TIME_OFFSET ( 5, 0, .BEHIND. ) ;
#37 = DIRECTION ( 'NONE',  ( -0.0000000000000000000, -0.0000000000000000000, -1.000000000000000000 ) ) ;
#38 = DIRECTION ( 'NONE',  ( 1.000000000000000000, 0.0000000000000000000, 0.0000000000000000000 ) ) ;
#39 = DATE_TIME_ROLE ( 'classification_date' ) ;
#40 = FACE_OUTER_BOUND ( 'NONE', #9, .T. ) ;
#41 = CC_DESIGN_APPROVAL ( #58, ( #28 ) ) ;
#42 = LOCAL_TIME ( 13, 42, 2.000000000000000000, #99 ) ;
#43 =( GEOMETRIC_REPRESENTATION_CONTEXT ( 3 ) GLOBAL_UNCERTAINTY_ASSIGNED_CONTEXT ( ( #15 ) ) GLOBAL_UNIT_ASSIGNED_CONTEXT ( ( #90, #146, #164 ) ) REPRESENTATION_CONTEXT ( 'NONE', 'WORKASPACE' ) );
#44 = CLOSED_SHELL ( 'NONE', ( #3, #33, #141, #112 ) ) ;
#45 = DIRECTION ( 'NONE',  ( -0.0000000000000000000, -0.0000000000000000000, -1.000000000000000000 ) ) ;
#46 = EDGE_CURVE ( 'NONE', #125, #114, #110, .T. ) ;
#47 = CARTESIAN_POINT ( 'NONE',  ( 0.0000000000000000000, 0.0000000000000000000, 0.0000000000000000000 ) ) ;
#48 = CARTESIAN_POINT ( 'NONE',  ( 0.0000000000000000000, 0.0000000000000000000, 0.0000000000000000000 ) ) ;
#49 = CALENDAR_DATE ( 2020, 7, 10 ) ;
#50 = PERSON_AND_ORGANIZATION_ROLE ( 'classification_officer' ) ;
#51 = AXIS2_PLACEMENT_3D ( 'NONE', #127, #59, #70 ) ;
#52 = PERSON_AND_ORGANIZATION_ROLE ( 'creator' ) ;
#53 = CALENDAR_DATE ( 2020, 7, 10 ) ;
#54 = EDGE_LOOP ( 'NONE', ( #144, #89 ) ) ;
#55 = COORDINATED_UNIVERSAL_TIME_OFFSET ( 5, 0, .BEHIND. ) ;
#56 = DATE_AND_TIME ( #49, #168 ) ;
#57 = PERSON_AND_ORGANIZATION ( #24, #130 ) ;
#58 = APPROVAL ( #106, 'UNSPECIFIED' ) ;
#59 = DIRECTION ( 'NONE',  ( -0.0000000000000000000, -0.0000000000000000000, -1.000000000000000000 ) ) ;
#60 = DIRECTION ( 'NONE',  ( 1.000000000000000000, 0.0000000000000000000, 0.0000000000000000000 ) ) ;
#61 = COORDINATED_UNIVERSAL_TIME_OFFSET ( 5, 0, .BEHIND. ) ;
#62 = MECHANICAL_CONTEXT ( 'NONE', #75, 'mechanical' ) ;
#63 = CALENDAR_DATE ( 2020, 7, 10 ) ;
#64 = FACE_OUTER_BOUND ( 'NONE', #102, .T. ) ;
#65 = AXIS2_PLACEMENT_3D ( 'NONE', #6, #172, #86 ) ;
#66 = CC_DESIGN_PERSON_AND_ORGANIZATION_ASSIGNMENT ( #19, #50, ( #113 ) ) ;
#67 = LOCAL_TIME ( 13, 42, 2.000000000000000000, #61 ) ;
#68 = ORIENTED_EDGE ( 'NONE', *, *, #155, .F. ) ;
#69 = MANIFOLD_SOLID_BREP ( 'Extrude1', #44 ) ;
#70 = DIRECTION ( 'NONE',  ( -1.000000000000000000, 0.0000000000000000000, 0.0000000000000000000 ) ) ;
#71 = SHAPE_DEFINITION_REPRESENTATION ( #142, #13 ) ;
#72 = ORIENTED_EDGE ( 'NONE', *, *, #98, .T. ) ;
#73 = AXIS2_PLACEMENT_3D ( 'NONE', #48, #143, #60 ) ;
#74 = APPLICATION_CONTEXT ( 'configuration controlled 3d designs of mechanical parts and assemblies' ) ;
#75 = APPLICATION_CONTEXT ( 'configuration controlled 3d designs of mechanical parts and assemblies' ) ;
#76 = CIRCLE ( 'NONE', #82, 37.50000000000000711 ) ;
#77 = EDGE_CURVE ( 'NONE', #114, #108, #152, .T. ) ;
#78 = LOCAL_TIME ( 13, 42, 2.000000000000000000, #169 ) ;
#79 = VECTOR ( 'NONE', #45, 1000.000000000000000 ) ;
#80 = PERSON_AND_ORGANIZATION ( #24, #130 ) ;
#81 = VECTOR ( 'NONE', #37, 1000.000000000000000 ) ;
#82 = AXIS2_PLACEMENT_3D ( 'NONE', #150, #132, #38 ) ;
#83 = CARTESIAN_POINT ( 'NONE',  ( -37.50000000000000711, 0.0000000000000000000, 5.000000000000000000 ) ) ;
#84 = PLANE ( 'NONE',  #30 ) ;
#85 = CC_DESIGN_PERSON_AND_ORGANIZATION_ASSIGNMENT ( #88, #52, ( #124 ) ) ;
#86 = DIRECTION ( 'NONE',  ( -1.000000000000000000, 0.0000000000000000000, 0.0000000000000000000 ) ) ;
#87 = CARTESIAN_POINT ( 'NONE',  ( 0.0000000000000000000, 0.0000000000000000000, 5.000000000000000000 ) ) ;
#88 = PERSON_AND_ORGANIZATION ( #24, #130 ) ;
#89 = ORIENTED_EDGE ( 'NONE', *, *, #77, .F. ) ;
#90 =( LENGTH_UNIT ( ) NAMED_UNIT ( * ) SI_UNIT ( .MILLI., .METRE. ) );
#91 = APPROVAL_STATUS ( 'not_yet_approved' ) ;
#92 = DATE_TIME_ROLE ( 'creation_date' ) ;
#93 = APPROVAL_PERSON_ORGANIZATION ( #153, #58, #147 ) ;
#94 = ORIENTED_EDGE ( 'NONE', *, *, #109, .T. ) ;
#95 = APPROVAL ( #23, 'UNSPECIFIED' ) ;
#96 = DATE_AND_TIME ( #129, #78 ) ;
#97 = ORIENTED_EDGE ( 'NONE', *, *, #77, .T. ) ;
#98 = EDGE_CURVE ( 'NONE', #138, #108, #32, .T. ) ;
#99 = COORDINATED_UNIVERSAL_TIME_OFFSET ( 5, 0, .BEHIND. ) ;
#100 = CARTESIAN_POINT ( 'NONE',  ( -37.50000000000000711, 0.0000000000000000000, 0.0000000000000000000 ) ) ;
#101 = LOCAL_TIME ( 13, 42, 2.000000000000000000, #55 ) ;
#102 = EDGE_LOOP ( 'NONE', ( #123, #111 ) ) ;
#103 = CARTESIAN_POINT ( 'NONE',  ( 0.0000000000000000000, 0.0000000000000000000, 0.0000000000000000000 ) ) ;
#104 = CC_DESIGN_SECURITY_CLASSIFICATION ( #113, ( #28 ) ) ;
#105 = FACE_OUTER_BOUND ( 'NONE', #14, .T. ) ;
#106 = APPROVAL_STATUS ( 'not_yet_approved' ) ;
#107 = APPROVAL_DATE_TIME ( #96, #140 ) ;
#108 = VERTEX_POINT ( 'NONE', #100 ) ;
#109 = EDGE_CURVE ( 'NONE', #108, #114, #12, .T. ) ;
#110 = LINE ( 'NONE', #126, #79 ) ;
#111 = ORIENTED_EDGE ( 'NONE', *, *, #160, .T. ) ;
#112 = ADVANCED_FACE ( 'NONE', ( #4 ), #84, .F. ) ;
#113 = SECURITY_CLASSIFICATION ( '', '', #131 ) ;
#114 = VERTEX_POINT ( 'NONE', #145 ) ;
#115 = DIRECTION ( 'NONE',  ( 0.0000000000000000000, 0.0000000000000000000, 1.000000000000000000 ) ) ;
#116 = DIRECTION ( 'NONE',  ( 1.000000000000000000, 0.0000000000000000000, -0.0000000000000000000 ) ) ;
#117 = AXIS2_PLACEMENT_3D ( 'NONE', #103, #156, #35 ) ;
#118 = APPROVAL_PERSON_ORGANIZATION ( #16, #95, #133 ) ;
#119 = ORIENTED_EDGE ( 'NONE', *, *, #160, .F. ) ;
#120 = PERSON_AND_ORGANIZATION_ROLE ( 'creator' ) ;
#121 = ORIENTED_EDGE ( 'NONE', *, *, #46, .F. ) ;
#122 = APPROVAL_DATE_TIME ( #31, #58 ) ;
#123 = ORIENTED_EDGE ( 'NONE', *, *, #155, .T. ) ;
#124 = PRODUCT_DEFINITION ( 'UNKNOWN', '', #28, #29 ) ;
#125 = VERTEX_POINT ( 'NONE', #159 ) ;
#126 = CARTESIAN_POINT ( 'NONE',  ( 37.50000000000000711, 4.592425496802575156E-15, 5.000000000000000000 ) ) ;
#127 = CARTESIAN_POINT ( 'NONE',  ( 0.0000000000000000000, 0.0000000000000000000, 5.000000000000000000 ) ) ;
#128 = PLANE ( 'NONE',  #34 ) ;
#129 = CALENDAR_DATE ( 2020, 7, 10 ) ;
#130 = ORGANIZATION ( 'UNSPECIFIED', 'UNSPECIFIED', '' ) ;
#131 = SECURITY_CLASSIFICATION_LEVEL ( 'unclassified' ) ;
#132 = DIRECTION ( 'NONE',  ( 0.0000000000000000000, 0.0000000000000000000, 1.000000000000000000 ) ) ;
#133 = APPROVAL_ROLE ( '' ) ;
#134 = DATE_AND_TIME ( #63, #42 ) ;
#135 = PERSON_AND_ORGANIZATION_ROLE ( 'design_owner' ) ;
#136 = CC_DESIGN_APPROVAL ( #95, ( #113 ) ) ;
#137 = PERSON_AND_ORGANIZATION ( #24, #130 ) ;
#138 = VERTEX_POINT ( 'NONE', #5 ) ;
#139 = CC_DESIGN_PERSON_AND_ORGANIZATION_ASSIGNMENT ( #80, #163, ( #28 ) ) ;
#140 = APPROVAL ( #91, 'UNSPECIFIED' ) ;
#141 = ADVANCED_FACE ( 'NONE', ( #64 ), #128, .T. ) ;
#142 = PRODUCT_DEFINITION_SHAPE ( 'NONE', 'NONE',  #124 ) ;
#143 = DIRECTION ( 'NONE',  ( 0.0000000000000000000, 0.0000000000000000000, 1.000000000000000000 ) ) ;
#144 = ORIENTED_EDGE ( 'NONE', *, *, #109, .F. ) ;
#145 = CARTESIAN_POINT ( 'NONE',  ( 37.50000000000000711, 4.592425496802575156E-15, 0.0000000000000000000 ) ) ;
#146 =( NAMED_UNIT ( * ) PLANE_ANGLE_UNIT ( ) SI_UNIT ( $, .RADIAN. ) );
#147 = APPROVAL_ROLE ( '' ) ;
#148 = CIRCLE ( 'NONE', #174, 37.50000000000000711 ) ;
#149 = APPLICATION_PROTOCOL_DEFINITION ( 'international standard', 'config_control_design', 1994, #75 ) ;
#150 = CARTESIAN_POINT ( 'NONE',  ( 0.0000000000000000000, 0.0000000000000000000, 5.000000000000000000 ) ) ;
#151 = CC_DESIGN_PERSON_AND_ORGANIZATION_ASSIGNMENT ( #27, #120, ( #28 ) ) ;
#152 = CIRCLE ( 'NONE', #117, 37.50000000000000711 ) ;
#153 = PERSON_AND_ORGANIZATION ( #24, #130 ) ;
#154 = ORIENTED_EDGE ( 'NONE', *, *, #98, .F. ) ;
#155 = EDGE_CURVE ( 'NONE', #138, #125, #148, .T. ) ;
#156 = DIRECTION ( 'NONE',  ( 0.0000000000000000000, 0.0000000000000000000, 1.000000000000000000 ) ) ;
#157 = CALENDAR_DATE ( 2020, 7, 10 ) ;
#158 = AXIS2_PLACEMENT_3D ( 'NONE', #8, #10, #165 ) ;
#159 = CARTESIAN_POINT ( 'NONE',  ( 37.50000000000000711, 4.592425496802575156E-15, 5.000000000000000000 ) ) ;
#160 = EDGE_CURVE ( 'NONE', #125, #138, #76, .T. ) ;
#161 = DIRECTION ( 'NONE',  ( 1.000000000000000000, 0.0000000000000000000, -0.0000000000000000000 ) ) ;
#162 = DATE_AND_TIME ( #53, #101 ) ;
#163 = PERSON_AND_ORGANIZATION_ROLE ( 'design_supplier' ) ;
#164 =( NAMED_UNIT ( * ) SI_UNIT ( $, .STERADIAN. ) SOLID_ANGLE_UNIT ( ) );
#165 = DIRECTION ( 'NONE',  ( 1.000000000000000000, 0.0000000000000000000, 0.0000000000000000000 ) ) ;
#166 = CYLINDRICAL_SURFACE ( 'NONE', #65, 37.50000000000000711 ) ;
#167 = CC_DESIGN_DATE_AND_TIME_ASSIGNMENT ( #162, #92, ( #124 ) ) ;
#168 = LOCAL_TIME ( 13, 42, 2.000000000000000000, #36 ) ;
#169 = COORDINATED_UNIVERSAL_TIME_OFFSET ( 5, 0, .BEHIND. ) ;
#170 = DIRECTION ( 'NONE',  ( 0.0000000000000000000, 0.0000000000000000000, 1.000000000000000000 ) ) ;
#171 = CARTESIAN_POINT ( 'NONE',  ( 0.0000000000000000000, 0.0000000000000000000, 5.000000000000000000 ) ) ;
#172 = DIRECTION ( 'NONE',  ( -0.0000000000000000000, -0.0000000000000000000, -1.000000000000000000 ) ) ;
#173 = CYLINDRICAL_SURFACE ( 'NONE', #51, 37.50000000000000711 ) ;
#174 = AXIS2_PLACEMENT_3D ( 'NONE', #87, #11, #22 ) ;
#175 = APPROVAL_ROLE ( '' ) ;
ENDSEC;
END-ISO-10303-21;
