ISO-10303-21;
HEADER;
FILE_DESCRIPTION (( 'STEP AP203' ),
    '1' );
FILE_NAME ('Web Model 34524_34524.step',
    '2019-01-18T15:33:48',
    ( '' ),
    ( '' ),
    'SwSTEP 2.0',
    'SolidWorks 2016',
    '' );
FILE_SCHEMA (( 'CONFIG_CONTROL_DESIGN' ));
ENDSEC;

DATA;
#1 = DIRECTION ( 'NONE',  ( 0.0000000000000000000, 0.0000000000000000000, 1.000000000000000000 ) ) ;
#2 = VERTEX_POINT ( 'NONE', #141 ) ;
#3 = CC_DESIGN_PERSON_AND_ORGANIZATION_ASSIGNMENT ( #82, #57, ( #170 ) ) ;
#4 = PLANE ( 'NONE',  #74 ) ;
#5 = AXIS2_PLACEMENT_3D ( 'NONE', #69, #39, #132 ) ;
#6 = CALENDAR_DATE ( 2019, 18, 1 ) ;
#7 = CARTESIAN_POINT ( 'NONE',  ( 0.0000000000000000000, 0.0000000000000000000, 0.5500000000000000400 ) ) ;
#8 = CARTESIAN_POINT ( 'NONE',  ( 0.0000000000000000000, 0.0000000000000000000, -0.5500000000000000400 ) ) ;
#9 = DIRECTION ( 'NONE',  ( 1.000000000000000000, 0.0000000000000000000, 0.0000000000000000000 ) ) ;
#10 = DIRECTION ( 'NONE',  ( 0.0000000000000000000, 0.0000000000000000000, 1.000000000000000000 ) ) ;
#11 = SECURITY_CLASSIFICATION_LEVEL ( 'unclassified' ) ;
#12 = ADVANCED_FACE ( 'NONE', ( #120 ), #4, .F. ) ;
#13 = AXIS2_PLACEMENT_3D ( 'NONE', #100, #116, #23 ) ;
#14 = ORIENTED_EDGE ( 'NONE', *, *, #88, .F. ) ;
#15 = LOCAL_TIME ( 10, 33, 48.00000000000000000, #123 ) ;
#16 = CALENDAR_DATE ( 2019, 18, 1 ) ;
#17 = ORIENTED_EDGE ( 'NONE', *, *, #136, .F. ) ;
#18 = LOCAL_TIME ( 10, 33, 48.00000000000000000, #50 ) ;
#19 = DESIGN_CONTEXT ( 'detailed design', #150, 'design' ) ;
#20 = DATE_AND_TIME ( #160, #41 ) ;
#21 = CYLINDRICAL_SURFACE ( 'NONE', #172, 6.250000000000000000 ) ;
#22 = DIRECTION ( 'NONE',  ( -0.0000000000000000000, -0.0000000000000000000, -1.000000000000000000 ) ) ;
#23 = DIRECTION ( 'NONE',  ( 1.000000000000000000, 0.0000000000000000000, 0.0000000000000000000 ) ) ;
#24 =( LENGTH_UNIT ( ) NAMED_UNIT ( * ) SI_UNIT ( .MILLI., .METRE. ) );
#25 =( GEOMETRIC_REPRESENTATION_CONTEXT ( 3 ) GLOBAL_UNCERTAINTY_ASSIGNED_CONTEXT ( ( #109 ) ) GLOBAL_UNIT_ASSIGNED_CONTEXT ( ( #24, #117, #135 ) ) REPRESENTATION_CONTEXT ( 'NONE', 'WORKASPACE' ) );
#26 = SHAPE_DEFINITION_REPRESENTATION ( #142, #111 ) ;
#27 = ADVANCED_FACE ( 'NONE', ( #76 ), #21, .T. ) ;
#28 = CIRCLE ( 'NONE', #5, 6.250000000000000000 ) ;
#29 = CC_DESIGN_DATE_AND_TIME_ASSIGNMENT ( #63, #164, ( #170 ) ) ;
#30 = ORIENTED_EDGE ( 'NONE', *, *, #134, .F. ) ;
#31 = DIRECTION ( 'NONE',  ( 0.0000000000000000000, 0.0000000000000000000, 1.000000000000000000 ) ) ;
#32 = CC_DESIGN_PERSON_AND_ORGANIZATION_ASSIGNMENT ( #131, #161, ( #67 ) ) ;
#33 = EDGE_LOOP ( 'NONE', ( #14, #17, #94, #115 ) ) ;
#34 = CARTESIAN_POINT ( 'NONE',  ( -6.250000000000000000, 0.0000000000000000000, 0.5500000000000000400 ) ) ;
#35 = CC_DESIGN_APPROVAL ( #62, ( #79 ) ) ;
#36 = DIRECTION ( 'NONE',  ( 1.000000000000000000, 0.0000000000000000000, -0.0000000000000000000 ) ) ;
#37 = CARTESIAN_POINT ( 'NONE',  ( 0.0000000000000000000, 0.0000000000000000000, 0.0000000000000000000 ) ) ;
#38 = CALENDAR_DATE ( 2019, 18, 1 ) ;
#39 = DIRECTION ( 'NONE',  ( 0.0000000000000000000, 0.0000000000000000000, 1.000000000000000000 ) ) ;
#40 = PERSON_AND_ORGANIZATION_ROLE ( 'creator' ) ;
#41 = LOCAL_TIME ( 10, 33, 48.00000000000000000, #89 ) ;
#42 = EDGE_LOOP ( 'NONE', ( #30, #87, #158, #108 ) ) ;
#43 = LOCAL_TIME ( 10, 33, 48.00000000000000000, #75 ) ;
#44 = PRODUCT_DEFINITION_FORMATION_WITH_SPECIFIED_SOURCE ( 'ANY', '', #67, .NOT_KNOWN. ) ;
#45 = PERSON_AND_ORGANIZATION ( #144, #168 ) ;
#46 = DIRECTION ( 'NONE',  ( -0.0000000000000000000, -0.0000000000000000000, -1.000000000000000000 ) ) ;
#47 = FACE_OUTER_BOUND ( 'NONE', #33, .T. ) ;
#48 = DATE_AND_TIME ( #157, #15 ) ;
#49 = AXIS2_PLACEMENT_3D ( 'NONE', #155, #10, #36 ) ;
#50 = COORDINATED_UNIVERSAL_TIME_OFFSET ( 5, 0, .BEHIND. ) ;
#51 = VERTEX_POINT ( 'NONE', #66 ) ;
#52 = PERSON_AND_ORGANIZATION ( #144, #168 ) ;
#53 = CARTESIAN_POINT ( 'NONE',  ( 6.250000000000000000, 7.654042494670957600E-016, 0.5500000000000000400 ) ) ;
#54 = DIRECTION ( 'NONE',  ( 1.000000000000000000, 0.0000000000000000000, 0.0000000000000000000 ) ) ;
#55 = APPROVAL ( #165, 'UNSPECIFIED' ) ;
#56 = ADVANCED_FACE ( 'NONE', ( #143 ), #159, .T. ) ;
#57 = PERSON_AND_ORGANIZATION_ROLE ( 'classification_officer' ) ;
#58 = APPROVAL_DATE_TIME ( #80, #62 ) ;
#59 = APPROVAL_ROLE ( '' ) ;
#60 = APPROVAL_ROLE ( '' ) ;
#61 = ORIENTED_EDGE ( 'NONE', *, *, #136, .T. ) ;
#62 = APPROVAL ( #70, 'UNSPECIFIED' ) ;
#63 = DATE_AND_TIME ( #16, #43 ) ;
#64 = ORIENTED_EDGE ( 'NONE', *, *, #134, .T. ) ;
#65 = EDGE_CURVE ( 'NONE', #2, #51, #126, .T. ) ;
#66 = CARTESIAN_POINT ( 'NONE',  ( 6.250000000000000000, 7.654042494670957600E-016, -0.5500000000000000400 ) ) ;
#67 = PRODUCT ( 'Web Model 34524_34524', 'Web Model 34524_34524', '', ( #151 ) ) ;
#68 = VECTOR ( 'NONE', #84, 1000.000000000000000 ) ;
#69 = CARTESIAN_POINT ( 'NONE',  ( 0.0000000000000000000, 0.0000000000000000000, 0.5500000000000000400 ) ) ;
#70 = APPROVAL_STATUS ( 'not_yet_approved' ) ;
#71 = PERSON_AND_ORGANIZATION_ROLE ( 'creator' ) ;
#72 = DATE_TIME_ROLE ( 'creation_date' ) ;
#73 = AXIS2_PLACEMENT_3D ( 'NONE', #37, #1, #54 ) ;
#74 = AXIS2_PLACEMENT_3D ( 'NONE', #106, #31, #125 ) ;
#75 = COORDINATED_UNIVERSAL_TIME_OFFSET ( 5, 0, .BEHIND. ) ;
#76 = FACE_OUTER_BOUND ( 'NONE', #42, .T. ) ;
#77 = AXIS2_PLACEMENT_3D ( 'NONE', #8, #145, #9 ) ;
#78 = APPROVAL_DATE_TIME ( #48, #55 ) ;
#79 = PRODUCT_DEFINITION ( 'UNKNOWN', '', #44, #19 ) ;
#80 = DATE_AND_TIME ( #6, #107 ) ;
#81 = ADVANCED_FACE ( 'NONE', ( #47 ), #154, .T. ) ;
#82 = PERSON_AND_ORGANIZATION ( #144, #168 ) ;
#83 = APPROVAL_DATE_TIME ( #146, #104 ) ;
#84 = DIRECTION ( 'NONE',  ( -0.0000000000000000000, -0.0000000000000000000, -1.000000000000000000 ) ) ;
#85 = AXIS2_PLACEMENT_3D ( 'NONE', #112, #130, #174 ) ;
#86 = PERSON_AND_ORGANIZATION ( #144, #168 ) ;
#87 = ORIENTED_EDGE ( 'NONE', *, *, #88, .T. ) ;
#88 = EDGE_CURVE ( 'NONE', #137, #51, #97, .T. ) ;
#89 = COORDINATED_UNIVERSAL_TIME_OFFSET ( 5, 0, .BEHIND. ) ;
#90 = PERSON_AND_ORGANIZATION ( #144, #168 ) ;
#91 = APPLICATION_PROTOCOL_DEFINITION ( 'international standard', 'config_control_design', 1994, #150 ) ;
#92 = EDGE_CURVE ( 'NONE', #51, #2, #96, .T. ) ;
#93 = APPROVAL_STATUS ( 'not_yet_approved' ) ;
#94 = ORIENTED_EDGE ( 'NONE', *, *, #113, .T. ) ;
#95 = CC_DESIGN_PERSON_AND_ORGANIZATION_ASSIGNMENT ( #167, #71, ( #79 ) ) ;
#96 = CIRCLE ( 'NONE', #85, 6.250000000000000000 ) ;
#97 = LINE ( 'NONE', #110, #166 ) ;
#98 = CC_DESIGN_DATE_AND_TIME_ASSIGNMENT ( #20, #72, ( #79 ) ) ;
#99 = CARTESIAN_POINT ( 'NONE',  ( -6.250000000000000000, 0.0000000000000000000, 0.5500000000000000400 ) ) ;
#100 = CARTESIAN_POINT ( 'NONE',  ( 0.0000000000000000000, 0.0000000000000000000, 0.5500000000000000400 ) ) ;
#101 = CC_DESIGN_APPROVAL ( #104, ( #44 ) ) ;
#102 = APPROVAL_ROLE ( '' ) ;
#103 = APPROVAL_PERSON_ORGANIZATION ( #162, #104, #60 ) ;
#104 = APPROVAL ( #93, 'UNSPECIFIED' ) ;
#105 = DIRECTION ( 'NONE',  ( -1.000000000000000000, 0.0000000000000000000, 0.0000000000000000000 ) ) ;
#106 = CARTESIAN_POINT ( 'NONE',  ( 0.0000000000000000000, 0.0000000000000000000, -0.5500000000000000400 ) ) ;
#107 = LOCAL_TIME ( 10, 33, 48.00000000000000000, #114 ) ;
#108 = ORIENTED_EDGE ( 'NONE', *, *, #113, .F. ) ;
#109 = UNCERTAINTY_MEASURE_WITH_UNIT (LENGTH_MEASURE( 1.000000000000000100E-005 ), #24, 'distance_accuracy_value', 'NONE');
#110 = CARTESIAN_POINT ( 'NONE',  ( 6.250000000000000000, 7.654042494670957600E-016, 0.5500000000000000400 ) ) ;
#111 = ADVANCED_BREP_SHAPE_REPRESENTATION ( 'Web Model 34524_34524', ( #140, #73 ), #25 ) ;
#112 = CARTESIAN_POINT ( 'NONE',  ( 0.0000000000000000000, 0.0000000000000000000, -0.5500000000000000400 ) ) ;
#113 = EDGE_CURVE ( 'NONE', #173, #2, #133, .T. ) ;
#114 = COORDINATED_UNIVERSAL_TIME_OFFSET ( 5, 0, .BEHIND. ) ;
#115 = ORIENTED_EDGE ( 'NONE', *, *, #65, .T. ) ;
#116 = DIRECTION ( 'NONE',  ( 0.0000000000000000000, 0.0000000000000000000, 1.000000000000000000 ) ) ;
#117 =( NAMED_UNIT ( * ) PLANE_ANGLE_UNIT ( ) SI_UNIT ( $, .RADIAN. ) );
#118 = APPROVAL_PERSON_ORGANIZATION ( #90, #62, #59 ) ;
#119 = PERSON_AND_ORGANIZATION_ROLE ( 'design_supplier' ) ;
#120 = FACE_OUTER_BOUND ( 'NONE', #139, .T. ) ;
#121 = APPLICATION_CONTEXT ( 'configuration controlled 3d designs of mechanical parts and assemblies' ) ;
#122 = CC_DESIGN_PERSON_AND_ORGANIZATION_ASSIGNMENT ( #86, #119, ( #44 ) ) ;
#123 = COORDINATED_UNIVERSAL_TIME_OFFSET ( 5, 0, .BEHIND. ) ;
#124 = APPROVAL_PERSON_ORGANIZATION ( #52, #55, #102 ) ;
#125 = DIRECTION ( 'NONE',  ( 1.000000000000000000, 0.0000000000000000000, -0.0000000000000000000 ) ) ;
#126 = CIRCLE ( 'NONE', #77, 6.250000000000000000 ) ;
#127 = ORIENTED_EDGE ( 'NONE', *, *, #65, .F. ) ;
#128 = DIRECTION ( 'NONE',  ( -0.0000000000000000000, -0.0000000000000000000, -1.000000000000000000 ) ) ;
#129 = CC_DESIGN_APPROVAL ( #55, ( #170 ) ) ;
#130 = DIRECTION ( 'NONE',  ( 0.0000000000000000000, 0.0000000000000000000, 1.000000000000000000 ) ) ;
#131 = PERSON_AND_ORGANIZATION ( #144, #168 ) ;
#132 = DIRECTION ( 'NONE',  ( 1.000000000000000000, 0.0000000000000000000, 0.0000000000000000000 ) ) ;
#133 = LINE ( 'NONE', #34, #68 ) ;
#134 = EDGE_CURVE ( 'NONE', #137, #173, #28, .T. ) ;
#135 =( NAMED_UNIT ( * ) SI_UNIT ( $, .STERADIAN. ) SOLID_ANGLE_UNIT ( ) );
#136 = EDGE_CURVE ( 'NONE', #173, #137, #171, .T. ) ;
#137 = VERTEX_POINT ( 'NONE', #53 ) ;
#138 = CC_DESIGN_SECURITY_CLASSIFICATION ( #170, ( #44 ) ) ;
#139 = EDGE_LOOP ( 'NONE', ( #127, #149 ) ) ;
#140 = MANIFOLD_SOLID_BREP ( 'Boss-Extrude1', #163 ) ;
#141 = CARTESIAN_POINT ( 'NONE',  ( -6.250000000000000000, 0.0000000000000000000, -0.5500000000000000400 ) ) ;
#142 = PRODUCT_DEFINITION_SHAPE ( 'NONE', 'NONE',  #79 ) ;
#143 = FACE_OUTER_BOUND ( 'NONE', #175, .T. ) ;
#144 = PERSON ( 'UNSPECIFIED', 'UNSPECIFIED', 'UNSPECIFIED', ('UNSPECIFIED'), ('UNSPECIFIED'), ('UNSPECIFIED') ) ;
#145 = DIRECTION ( 'NONE',  ( 0.0000000000000000000, 0.0000000000000000000, 1.000000000000000000 ) ) ;
#146 = DATE_AND_TIME ( #38, #18 ) ;
#147 = PRODUCT_RELATED_PRODUCT_CATEGORY ( 'detail', '', ( #67 ) ) ;
#148 = APPLICATION_PROTOCOL_DEFINITION ( 'international standard', 'config_control_design', 1994, #121 ) ;
#149 = ORIENTED_EDGE ( 'NONE', *, *, #92, .F. ) ;
#150 = APPLICATION_CONTEXT ( 'configuration controlled 3d designs of mechanical parts and assemblies' ) ;
#151 = MECHANICAL_CONTEXT ( 'NONE', #121, 'mechanical' ) ;
#152 = CC_DESIGN_PERSON_AND_ORGANIZATION_ASSIGNMENT ( #45, #40, ( #44 ) ) ;
#153 = AXIS2_PLACEMENT_3D ( 'NONE', #7, #22, #156 ) ;
#154 = CYLINDRICAL_SURFACE ( 'NONE', #153, 6.250000000000000000 ) ;
#155 = CARTESIAN_POINT ( 'NONE',  ( 0.0000000000000000000, 0.0000000000000000000, 0.5500000000000000400 ) ) ;
#156 = DIRECTION ( 'NONE',  ( -1.000000000000000000, 0.0000000000000000000, 0.0000000000000000000 ) ) ;
#157 = CALENDAR_DATE ( 2019, 18, 1 ) ;
#158 = ORIENTED_EDGE ( 'NONE', *, *, #92, .T. ) ;
#159 = PLANE ( 'NONE',  #49 ) ;
#160 = CALENDAR_DATE ( 2019, 18, 1 ) ;
#161 = PERSON_AND_ORGANIZATION_ROLE ( 'design_owner' ) ;
#162 = PERSON_AND_ORGANIZATION ( #144, #168 ) ;
#163 = CLOSED_SHELL ( 'NONE', ( #27, #81, #56, #12 ) ) ;
#164 = DATE_TIME_ROLE ( 'classification_date' ) ;
#165 = APPROVAL_STATUS ( 'not_yet_approved' ) ;
#166 = VECTOR ( 'NONE', #128, 1000.000000000000000 ) ;
#167 = PERSON_AND_ORGANIZATION ( #144, #168 ) ;
#168 = ORGANIZATION ( 'UNSPECIFIED', 'UNSPECIFIED', '' ) ;
#169 = CARTESIAN_POINT ( 'NONE',  ( 0.0000000000000000000, 0.0000000000000000000, 0.5500000000000000400 ) ) ;
#170 = SECURITY_CLASSIFICATION ( '', '', #11 ) ;
#171 = CIRCLE ( 'NONE', #13, 6.250000000000000000 ) ;
#172 = AXIS2_PLACEMENT_3D ( 'NONE', #169, #46, #105 ) ;
#173 = VERTEX_POINT ( 'NONE', #99 ) ;
#174 = DIRECTION ( 'NONE',  ( 1.000000000000000000, 0.0000000000000000000, 0.0000000000000000000 ) ) ;
#175 = EDGE_LOOP ( 'NONE', ( #61, #64 ) ) ;
ENDSEC;
END-ISO-10303-21;
