ISO-10303-21;
HEADER;
FILE_DESCRIPTION (( 'STEP AP203' ),
    '1' );
FILE_NAME ('Web Model 15402_15414.step',
    '2022-03-11T18:15:03',
    ( '' ),
    ( '' ),
    'SwSTEP 2.0',
    'SolidWorks 2021',
    '' );
FILE_SCHEMA (( 'CONFIG_CONTROL_DESIGN' ));
ENDSEC;

DATA;
#1 = APPROVAL_STATUS ( 'not_yet_approved' ) ;
#2 = DIRECTION ( 'NONE',  ( 1.000000000000000000, 0.000000000000000000, 0.000000000000000000 ) ) ;
#3 = ADVANCED_FACE ( 'NONE', ( #98 ), #16, .F. ) ;
#4 = APPROVAL_STATUS ( 'not_yet_approved' ) ;
#5 = LOCAL_TIME ( 13, 15, 3.000000000000000000, #91 ) ;
#6 = CIRCLE ( 'NONE', #29, 6.349999999999999645 ) ;
#7 = ORIENTED_EDGE ( 'NONE', *, *, #94, .T. ) ;
#8 = ORIENTED_EDGE ( 'NONE', *, *, #119, .F. ) ;
#9 = ORGANIZATION ( 'UNSPECIFIED', 'UNSPECIFIED', '' ) ;
#10 = DATE_AND_TIME ( #56, #96 ) ;
#11 = CIRCLE ( 'NONE', #159, 6.349999999999999645 ) ;
#12 = CALENDAR_DATE ( 2022, 11, 3 ) ;
#13 = PRODUCT_DEFINITION ( 'UNKNOWN', '', #108, #90 ) ;
#14 = DIRECTION ( 'NONE',  ( 0.000000000000000000, 0.000000000000000000, 1.000000000000000000 ) ) ;
#15 = APPROVAL_DATE_TIME ( #24, #34 ) ;
#16 = PLANE ( 'NONE',  #63 ) ;
#17 = DIRECTION ( 'NONE',  ( 0.000000000000000000, 0.000000000000000000, -1.000000000000000000 ) ) ;
#18 = DIRECTION ( 'NONE',  ( 0.000000000000000000, 0.000000000000000000, -1.000000000000000000 ) ) ;
#19 = EDGE_CURVE ( 'NONE', #141, #78, #140, .T. ) ;
#20 = AXIS2_PLACEMENT_3D ( 'NONE', #86, #14, #2 ) ;
#21 = CLOSED_SHELL ( 'NONE', ( #85, #158, #79, #3 ) ) ;
#22 = EDGE_LOOP ( 'NONE', ( #155, #50, #122, #51 ) ) ;
#23 = DATE_TIME_ROLE ( 'creation_date' ) ;
#24 = DATE_AND_TIME ( #41, #26 ) ;
#25 = PERSON_AND_ORGANIZATION ( #59, #9 ) ;
#26 = LOCAL_TIME ( 13, 15, 3.000000000000000000, #126 ) ;
#27 = CALENDAR_DATE ( 2022, 11, 3 ) ;
#28 = CARTESIAN_POINT ( 'NONE',  ( 0.7500000000000000000, 0.000000000000000000, 0.000000000000000000 ) ) ;
#29 = AXIS2_PLACEMENT_3D ( 'NONE', #87, #97, #168 ) ;
#30 = DIRECTION ( 'NONE',  ( 0.000000000000000000, 0.000000000000000000, 1.000000000000000000 ) ) ;
#31 =( NAMED_UNIT ( * ) SI_UNIT ( $, .STERADIAN. ) SOLID_ANGLE_UNIT ( ) );
#32 = CARTESIAN_POINT ( 'NONE',  ( 0.7500000000000000000, 0.000000000000000000, 0.000000000000000000 ) ) ;
#33 = CARTESIAN_POINT ( 'NONE',  ( 0.7500000000000000000, 7.776507174585692163E-16, -6.349999999999999645 ) ) ;
#34 = APPROVAL ( #1, 'UNSPECIFIED' ) ;
#35 = ORIENTED_EDGE ( 'NONE', *, *, #94, .F. ) ;
#36 = APPROVAL_PERSON_ORGANIZATION ( #125, #34, #175 ) ;
#37 = AXIS2_PLACEMENT_3D ( 'NONE', #150, #49, #61 ) ;
#38 = PRODUCT_RELATED_PRODUCT_CATEGORY ( 'detail', '', ( #40 ) ) ;
#39 = PERSON_AND_ORGANIZATION_ROLE ( 'design_owner' ) ;
#40 = PRODUCT ( 'Web Model 15402_15414', 'Web Model 15402_15414', '', ( #136 ) ) ;
#41 = CALENDAR_DATE ( 2022, 11, 3 ) ;
#42 = PERSON_AND_ORGANIZATION_ROLE ( 'creator' ) ;
#43 = COORDINATED_UNIVERSAL_TIME_OFFSET ( 5, 0, .BEHIND. ) ;
#44 = CYLINDRICAL_SURFACE ( 'NONE', #117, 6.349999999999999645 ) ;
#45 = DIRECTION ( 'NONE',  ( 1.000000000000000000, 0.000000000000000000, 0.000000000000000000 ) ) ;
#46 = CARTESIAN_POINT ( 'NONE',  ( 0.7500000000000000000, 0.000000000000000000, 0.000000000000000000 ) ) ;
#47 = CARTESIAN_POINT ( 'NONE',  ( 0.7500000000000000000, 0.000000000000000000, 6.349999999999999645 ) ) ;
#48 = CC_DESIGN_PERSON_AND_ORGANIZATION_ASSIGNMENT ( #66, #39, ( #40 ) ) ;
#49 = DIRECTION ( 'NONE',  ( 1.000000000000000000, 0.000000000000000000, 0.000000000000000000 ) ) ;
#50 = ORIENTED_EDGE ( 'NONE', *, *, #19, .T. ) ;
#51 = ORIENTED_EDGE ( 'NONE', *, *, #149, .F. ) ;
#52 = CC_DESIGN_APPROVAL ( #34, ( #108 ) ) ;
#53 = CC_DESIGN_PERSON_AND_ORGANIZATION_ASSIGNMENT ( #83, #135, ( #13 ) ) ;
#54 = CC_DESIGN_SECURITY_CLASSIFICATION ( #147, ( #108 ) ) ;
#55 = PERSON_AND_ORGANIZATION_ROLE ( 'design_supplier' ) ;
#56 = CALENDAR_DATE ( 2022, 11, 3 ) ;
#57 = COORDINATED_UNIVERSAL_TIME_OFFSET ( 5, 0, .BEHIND. ) ;
#58 = CARTESIAN_POINT ( 'NONE',  ( 0.7500000000000000000, 0.000000000000000000, 6.349999999999999645 ) ) ;
#59 = PERSON ( 'UNSPECIFIED', 'UNSPECIFIED', 'UNSPECIFIED', ('UNSPECIFIED'), ('UNSPECIFIED'), ('UNSPECIFIED') ) ;
#60 = LINE ( 'NONE', #47, #151 ) ;
#61 = DIRECTION ( 'NONE',  ( 0.000000000000000000, 0.000000000000000000, -1.000000000000000000 ) ) ;
#62 = DIRECTION ( 'NONE',  ( -1.000000000000000000, -0.000000000000000000, -0.000000000000000000 ) ) ;
#63 = AXIS2_PLACEMENT_3D ( 'NONE', #116, #138, #74 ) ;
#64 = ORIENTED_EDGE ( 'NONE', *, *, #19, .F. ) ;
#65 = CIRCLE ( 'NONE', #167, 6.349999999999999645 ) ;
#66 = PERSON_AND_ORGANIZATION ( #59, #9 ) ;
#67 = APPROVAL ( #4, 'UNSPECIFIED' ) ;
#68 = PERSON_AND_ORGANIZATION ( #59, #9 ) ;
#69 = CC_DESIGN_PERSON_AND_ORGANIZATION_ASSIGNMENT ( #173, #55, ( #108 ) ) ;
#70 = DIRECTION ( 'NONE',  ( -1.000000000000000000, -0.000000000000000000, -0.000000000000000000 ) ) ;
#71 =( NAMED_UNIT ( * ) PLANE_ANGLE_UNIT ( ) SI_UNIT ( $, .RADIAN. ) );
#72 = CARTESIAN_POINT ( 'NONE',  ( 0.7500000000000000000, 7.776507174585692163E-16, -6.349999999999999645 ) ) ;
#73 = MANIFOLD_SOLID_BREP ( 'Boss-Extrude1', #21 ) ;
#74 = DIRECTION ( 'NONE',  ( 0.000000000000000000, 0.000000000000000000, -1.000000000000000000 ) ) ;
#75 = CARTESIAN_POINT ( 'NONE',  ( -0.7500000000000000000, 0.000000000000000000, 6.349999999999999645 ) ) ;
#76 = LOCAL_TIME ( 13, 15, 3.000000000000000000, #160 ) ;
#77 = ORIENTED_EDGE ( 'NONE', *, *, #149, .T. ) ;
#78 = VERTEX_POINT ( 'NONE', #166 ) ;
#79 = ADVANCED_FACE ( 'NONE', ( #99 ), #89, .T. ) ;
#80 = APPROVAL_PERSON_ORGANIZATION ( #81, #133, #95 ) ;
#81 = PERSON_AND_ORGANIZATION ( #59, #9 ) ;
#82 = DATE_AND_TIME ( #27, #5 ) ;
#83 = PERSON_AND_ORGANIZATION ( #59, #9 ) ;
#84 = CC_DESIGN_APPROVAL ( #133, ( #13 ) ) ;
#85 = ADVANCED_FACE ( 'NONE', ( #164 ), #44, .T. ) ;
#86 = CARTESIAN_POINT ( 'NONE',  ( 0.000000000000000000, 0.000000000000000000, 0.000000000000000000 ) ) ;
#87 = CARTESIAN_POINT ( 'NONE',  ( -0.7500000000000000000, 0.000000000000000000, 0.000000000000000000 ) ) ;
#88 = CARTESIAN_POINT ( 'NONE',  ( -0.7500000000000000000, 0.000000000000000000, 0.000000000000000000 ) ) ;
#89 = PLANE ( 'NONE',  #174 ) ;
#90 = DESIGN_CONTEXT ( 'detailed design', #102, 'design' ) ;
#91 = COORDINATED_UNIVERSAL_TIME_OFFSET ( 5, 0, .BEHIND. ) ;
#92 = APPROVAL_ROLE ( '' ) ;
#93 = SECURITY_CLASSIFICATION_LEVEL ( 'unclassified' ) ;
#94 = EDGE_CURVE ( 'NONE', #157, #78, #65, .T. ) ;
#95 = APPROVAL_ROLE ( '' ) ;
#96 = LOCAL_TIME ( 13, 15, 3.000000000000000000, #43 ) ;
#97 = DIRECTION ( 'NONE',  ( 1.000000000000000000, 0.000000000000000000, 0.000000000000000000 ) ) ;
#98 = FACE_OUTER_BOUND ( 'NONE', #171, .T. ) ;
#99 = FACE_OUTER_BOUND ( 'NONE', #154, .T. ) ;
#100 = CYLINDRICAL_SURFACE ( 'NONE', #165, 6.349999999999999645 ) ;
#101 = APPLICATION_CONTEXT ( 'configuration controlled 3d designs of mechanical parts and assemblies' ) ;
#102 = APPLICATION_CONTEXT ( 'configuration controlled 3d designs of mechanical parts and assemblies' ) ;
#103 = CC_DESIGN_DATE_AND_TIME_ASSIGNMENT ( #146, #23, ( #13 ) ) ;
#104 = ORIENTED_EDGE ( 'NONE', *, *, #119, .T. ) ;
#105 = UNCERTAINTY_MEASURE_WITH_UNIT (LENGTH_MEASURE( 1.000000000000000082E-05 ), #152, 'distance_accuracy_value', 'NONE');
#106 = EDGE_LOOP ( 'NONE', ( #64, #8, #77, #7 ) ) ;
#107 = VERTEX_POINT ( 'NONE', #58 ) ;
#108 = PRODUCT_DEFINITION_FORMATION_WITH_SPECIFIED_SOURCE ( 'ANY', '', #40, .NOT_KNOWN. ) ;
#109 = SHAPE_DEFINITION_REPRESENTATION ( #112, #121 ) ;
#110 = CC_DESIGN_DATE_AND_TIME_ASSIGNMENT ( #129, #128, ( #147 ) ) ;
#111 = PERSON_AND_ORGANIZATION_ROLE ( 'classification_officer' ) ;
#112 = PRODUCT_DEFINITION_SHAPE ( 'NONE', 'NONE',  #13 ) ;
#113 = PERSON_AND_ORGANIZATION ( #59, #9 ) ;
#114 = APPROVAL_DATE_TIME ( #10, #67 ) ;
#115 = LOCAL_TIME ( 13, 15, 3.000000000000000000, #57 ) ;
#116 = CARTESIAN_POINT ( 'NONE',  ( -0.7500000000000000000, 0.000000000000000000, 0.000000000000000000 ) ) ;
#117 = AXIS2_PLACEMENT_3D ( 'NONE', #148, #62, #137 ) ;
#118 = DIRECTION ( 'NONE',  ( 1.000000000000000000, 0.000000000000000000, 0.000000000000000000 ) ) ;
#119 = EDGE_CURVE ( 'NONE', #107, #141, #156, .T. ) ;
#120 = ORIENTED_EDGE ( 'NONE', *, *, #144, .F. ) ;
#121 = ADVANCED_BREP_SHAPE_REPRESENTATION ( 'Web Model 15402_15414', ( #73, #20 ), #123 ) ;
#122 = ORIENTED_EDGE ( 'NONE', *, *, #144, .T. ) ;
#123 =( GEOMETRIC_REPRESENTATION_CONTEXT ( 3 ) GLOBAL_UNCERTAINTY_ASSIGNED_CONTEXT ( ( #105 ) ) GLOBAL_UNIT_ASSIGNED_CONTEXT ( ( #152, #71, #31 ) ) REPRESENTATION_CONTEXT ( 'NONE', 'WORKASPACE' ) );
#124 = EDGE_CURVE ( 'NONE', #141, #107, #11, .T. ) ;
#125 = PERSON_AND_ORGANIZATION ( #59, #9 ) ;
#126 = COORDINATED_UNIVERSAL_TIME_OFFSET ( 5, 0, .BEHIND. ) ;
#127 = CALENDAR_DATE ( 2022, 11, 3 ) ;
#128 = DATE_TIME_ROLE ( 'classification_date' ) ;
#129 = DATE_AND_TIME ( #12, #76 ) ;
#130 = CC_DESIGN_PERSON_AND_ORGANIZATION_ASSIGNMENT ( #68, #111, ( #147 ) ) ;
#131 = DIRECTION ( 'NONE',  ( 0.000000000000000000, 0.000000000000000000, -1.000000000000000000 ) ) ;
#132 = DIRECTION ( 'NONE',  ( -1.000000000000000000, -0.000000000000000000, -0.000000000000000000 ) ) ;
#133 = APPROVAL ( #134, 'UNSPECIFIED' ) ;
#134 = APPROVAL_STATUS ( 'not_yet_approved' ) ;
#135 = PERSON_AND_ORGANIZATION_ROLE ( 'creator' ) ;
#136 = MECHANICAL_CONTEXT ( 'NONE', #101, 'mechanical' ) ;
#137 = DIRECTION ( 'NONE',  ( 0.000000000000000000, 0.000000000000000000, 1.000000000000000000 ) ) ;
#138 = DIRECTION ( 'NONE',  ( 1.000000000000000000, 0.000000000000000000, 0.000000000000000000 ) ) ;
#139 = DIRECTION ( 'NONE',  ( 1.000000000000000000, 0.000000000000000000, 0.000000000000000000 ) ) ;
#140 = LINE ( 'NONE', #33, #142 ) ;
#141 = VERTEX_POINT ( 'NONE', #72 ) ;
#142 = VECTOR ( 'NONE', #132, 1000.000000000000000 ) ;
#143 = CC_DESIGN_APPROVAL ( #67, ( #147 ) ) ;
#144 = EDGE_CURVE ( 'NONE', #78, #157, #6, .T. ) ;
#145 = APPLICATION_PROTOCOL_DEFINITION ( 'international standard', 'config_control_design', 1994, #102 ) ;
#146 = DATE_AND_TIME ( #127, #115 ) ;
#147 = SECURITY_CLASSIFICATION ( '', '', #93 ) ;
#148 = CARTESIAN_POINT ( 'NONE',  ( 0.7500000000000000000, 0.000000000000000000, 0.000000000000000000 ) ) ;
#149 = EDGE_CURVE ( 'NONE', #107, #157, #60, .T. ) ;
#150 = CARTESIAN_POINT ( 'NONE',  ( 0.7500000000000000000, 0.000000000000000000, 0.000000000000000000 ) ) ;
#151 = VECTOR ( 'NONE', #169, 1000.000000000000000 ) ;
#152 =( LENGTH_UNIT ( ) NAMED_UNIT ( * ) SI_UNIT ( .MILLI., .METRE. ) );
#153 = FACE_OUTER_BOUND ( 'NONE', #106, .T. ) ;
#154 = EDGE_LOOP ( 'NONE', ( #104, #170 ) ) ;
#155 = ORIENTED_EDGE ( 'NONE', *, *, #124, .F. ) ;
#156 = CIRCLE ( 'NONE', #37, 6.349999999999999645 ) ;
#157 = VERTEX_POINT ( 'NONE', #75 ) ;
#158 = ADVANCED_FACE ( 'NONE', ( #153 ), #100, .T. ) ;
#159 = AXIS2_PLACEMENT_3D ( 'NONE', #46, #118, #17 ) ;
#160 = COORDINATED_UNIVERSAL_TIME_OFFSET ( 5, 0, .BEHIND. ) ;
#161 = APPROVAL_DATE_TIME ( #82, #133 ) ;
#162 = APPLICATION_PROTOCOL_DEFINITION ( 'international standard', 'config_control_design', 1994, #101 ) ;
#163 = CC_DESIGN_PERSON_AND_ORGANIZATION_ASSIGNMENT ( #25, #42, ( #108 ) ) ;
#164 = FACE_OUTER_BOUND ( 'NONE', #22, .T. ) ;
#165 = AXIS2_PLACEMENT_3D ( 'NONE', #32, #70, #30 ) ;
#166 = CARTESIAN_POINT ( 'NONE',  ( -0.7500000000000000000, 7.776507174585692163E-16, -6.349999999999999645 ) ) ;
#167 = AXIS2_PLACEMENT_3D ( 'NONE', #88, #45, #18 ) ;
#168 = DIRECTION ( 'NONE',  ( 0.000000000000000000, 0.000000000000000000, -1.000000000000000000 ) ) ;
#169 = DIRECTION ( 'NONE',  ( -1.000000000000000000, -0.000000000000000000, -0.000000000000000000 ) ) ;
#170 = ORIENTED_EDGE ( 'NONE', *, *, #124, .T. ) ;
#171 = EDGE_LOOP ( 'NONE', ( #35, #120 ) ) ;
#172 = APPROVAL_PERSON_ORGANIZATION ( #113, #67, #92 ) ;
#173 = PERSON_AND_ORGANIZATION ( #59, #9 ) ;
#174 = AXIS2_PLACEMENT_3D ( 'NONE', #28, #139, #131 ) ;
#175 = APPROVAL_ROLE ( '' ) ;
ENDSEC;
END-ISO-10303-21;
