ISO-10303-21;
HEADER;
FILE_DESCRIPTION (( 'STEP AP203' ),
    '1' );
FILE_NAME ('Web Model 66201.STEP',
    '2017-01-31T19:37:10',
    ( '' ),
    ( '' ),
    'SwSTEP 2.0',
    'SolidWorks 2016',
    '' );
FILE_SCHEMA (( 'CONFIG_CONTROL_DESIGN' ));
ENDSEC;

DATA;
#1 = EDGE_CURVE ( 'NONE', #113, #146, #121, .T. ) ;
#2 =( LENGTH_UNIT ( ) NAMED_UNIT ( * ) SI_UNIT ( .MILLI., .METRE. ) );
#3 = COORDINATED_UNIVERSAL_TIME_OFFSET ( 5, 0, .BEHIND. ) ;
#4 = DATE_TIME_ROLE ( 'creation_date' ) ;
#5 = CYLINDRICAL_SURFACE ( 'NONE', #88, 12.50000000000000000 ) ;
#6 = EDGE_LOOP ( 'NONE', ( #73, #175 ) ) ;
#7 = EDGE_CURVE ( 'NONE', #42, #46, #79, .T. ) ;
#8 = DIRECTION ( 'NONE',  ( 0.0000000000000000000, 0.0000000000000000000, 1.000000000000000000 ) ) ;
#9 = SHAPE_DEFINITION_REPRESENTATION ( #71, #114 ) ;
#10 = FACE_OUTER_BOUND ( 'NONE', #139, .T. ) ;
#11 = CARTESIAN_POINT ( 'NONE',  ( 12.50000000000000000, 1.530808498934191500E-015, 3.000000000000000000 ) ) ;
#12 = CALENDAR_DATE ( 2017, 31, 1 ) ;
#13 = EDGE_LOOP ( 'NONE', ( #155, #60, #66, #86 ) ) ;
#14 = FACE_OUTER_BOUND ( 'NONE', #127, .T. ) ;
#15 = AXIS2_PLACEMENT_3D ( 'NONE', #100, #130, #70 ) ;
#16 = APPROVAL_STATUS ( 'not_yet_approved' ) ;
#17 = APPLICATION_CONTEXT ( 'configuration controlled 3d designs of mechanical parts and assemblies' ) ;
#18 = ADVANCED_FACE ( 'NONE', ( #41 ), #162, .T. ) ;
#19 = SECURITY_CLASSIFICATION_LEVEL ( 'unclassified' ) ;
#20 = CC_DESIGN_DATE_AND_TIME_ASSIGNMENT ( #142, #92, ( #134 ) ) ;
#21 = CALENDAR_DATE ( 2017, 31, 1 ) ;
#22 = MANIFOLD_SOLID_BREP ( 'Extrude1', #51 ) ;
#23 = AXIS2_PLACEMENT_3D ( 'NONE', #117, #25, #67 ) ;
#24 = APPROVAL_PERSON_ORGANIZATION ( #87, #58, #131 ) ;
#25 = DIRECTION ( 'NONE',  ( -0.0000000000000000000, -0.0000000000000000000, -1.000000000000000000 ) ) ;
#26 = CC_DESIGN_APPROVAL ( #72, ( #164 ) ) ;
#27 = ORIENTED_EDGE ( 'NONE', *, *, #44, .T. ) ;
#28 = APPROVAL_DATE_TIME ( #173, #58 ) ;
#29 = PERSON_AND_ORGANIZATION_ROLE ( 'design_supplier' ) ;
#30 = PERSON_AND_ORGANIZATION ( #96, #167 ) ;
#31 = ADVANCED_FACE ( 'NONE', ( #14 ), #94, .F. ) ;
#32 = ORIENTED_EDGE ( 'NONE', *, *, #168, .F. ) ;
#33 = AXIS2_PLACEMENT_3D ( 'NONE', #62, #8, #64 ) ;
#34 = CARTESIAN_POINT ( 'NONE',  ( 0.0000000000000000000, 0.0000000000000000000, 0.0000000000000000000 ) ) ;
#35 = COORDINATED_UNIVERSAL_TIME_OFFSET ( 5, 0, .BEHIND. ) ;
#36 = CC_DESIGN_SECURITY_CLASSIFICATION ( #134, ( #164 ) ) ;
#37 = ORIENTED_EDGE ( 'NONE', *, *, #168, .T. ) ;
#38 = CARTESIAN_POINT ( 'NONE',  ( 0.0000000000000000000, 0.0000000000000000000, 0.0000000000000000000 ) ) ;
#39 = DIRECTION ( 'NONE',  ( -0.0000000000000000000, -0.0000000000000000000, -1.000000000000000000 ) ) ;
#40 = APPROVAL_PERSON_ORGANIZATION ( #30, #170, #55 ) ;
#41 = FACE_OUTER_BOUND ( 'NONE', #6, .T. ) ;
#42 = VERTEX_POINT ( 'NONE', #161 ) ;
#43 = PERSON_AND_ORGANIZATION_ROLE ( 'creator' ) ;
#44 = EDGE_CURVE ( 'NONE', #46, #146, #153, .T. ) ;
#45 = DATE_AND_TIME ( #111, #90 ) ;
#46 = VERTEX_POINT ( 'NONE', #151 ) ;
#47 = CARTESIAN_POINT ( 'NONE',  ( 0.0000000000000000000, 0.0000000000000000000, 0.0000000000000000000 ) ) ;
#48 = APPROVAL_DATE_TIME ( #45, #170 ) ;
#49 = DIRECTION ( 'NONE',  ( 1.000000000000000000, 0.0000000000000000000, -0.0000000000000000000 ) ) ;
#50 = PRODUCT_DEFINITION ( 'UNKNOWN', '', #164, #104 ) ;
#51 = CLOSED_SHELL ( 'NONE', ( #159, #57, #18, #31 ) ) ;
#52 = AXIS2_PLACEMENT_3D ( 'NONE', #38, #53, #99 ) ;
#53 = DIRECTION ( 'NONE',  ( 0.0000000000000000000, 0.0000000000000000000, 1.000000000000000000 ) ) ;
#54 = CC_DESIGN_APPROVAL ( #170, ( #134 ) ) ;
#55 = APPROVAL_ROLE ( '' ) ;
#56 = DIRECTION ( 'NONE',  ( 1.000000000000000000, 0.0000000000000000000, 0.0000000000000000000 ) ) ;
#57 = ADVANCED_FACE ( 'NONE', ( #10 ), #5, .T. ) ;
#58 = APPROVAL ( #77, 'UNSPECIFIED' ) ;
#59 = LOCAL_TIME ( 14, 37, 10.00000000000000000, #101 ) ;
#60 = ORIENTED_EDGE ( 'NONE', *, *, #157, .T. ) ;
#61 = AXIS2_PLACEMENT_3D ( 'NONE', #34, #109, #49 ) ;
#62 = CARTESIAN_POINT ( 'NONE',  ( 0.0000000000000000000, 0.0000000000000000000, 3.000000000000000000 ) ) ;
#63 = COORDINATED_UNIVERSAL_TIME_OFFSET ( 5, 0, .BEHIND. ) ;
#64 = DIRECTION ( 'NONE',  ( 1.000000000000000000, 0.0000000000000000000, -0.0000000000000000000 ) ) ;
#65 = PERSON_AND_ORGANIZATION ( #96, #167 ) ;
#66 = ORIENTED_EDGE ( 'NONE', *, *, #1, .T. ) ;
#67 = DIRECTION ( 'NONE',  ( -1.000000000000000000, 0.0000000000000000000, 0.0000000000000000000 ) ) ;
#68 = COORDINATED_UNIVERSAL_TIME_OFFSET ( 5, 0, .BEHIND. ) ;
#69 = CARTESIAN_POINT ( 'NONE',  ( 12.50000000000000000, 1.530808498934191500E-015, 0.0000000000000000000 ) ) ;
#70 = DIRECTION ( 'NONE',  ( 1.000000000000000000, 0.0000000000000000000, 0.0000000000000000000 ) ) ;
#71 = PRODUCT_DEFINITION_SHAPE ( 'NONE', 'NONE',  #50 ) ;
#72 = APPROVAL ( #16, 'UNSPECIFIED' ) ;
#73 = ORIENTED_EDGE ( 'NONE', *, *, #116, .T. ) ;
#74 = CARTESIAN_POINT ( 'NONE',  ( 0.0000000000000000000, 0.0000000000000000000, 0.0000000000000000000 ) ) ;
#75 = AXIS2_PLACEMENT_3D ( 'NONE', #81, #82, #133 ) ;
#76 = PERSON_AND_ORGANIZATION_ROLE ( 'design_owner' ) ;
#77 = APPROVAL_STATUS ( 'not_yet_approved' ) ;
#78 = LOCAL_TIME ( 14, 37, 10.00000000000000000, #3 ) ;
#79 = CIRCLE ( 'NONE', #75, 12.50000000000000000 ) ;
#80 = ORIENTED_EDGE ( 'NONE', *, *, #157, .F. ) ;
#81 = CARTESIAN_POINT ( 'NONE',  ( 0.0000000000000000000, 0.0000000000000000000, 3.000000000000000000 ) ) ;
#82 = DIRECTION ( 'NONE',  ( 0.0000000000000000000, 0.0000000000000000000, 1.000000000000000000 ) ) ;
#83 = APPROVAL_PERSON_ORGANIZATION ( #65, #72, #140 ) ;
#84 = FACE_OUTER_BOUND ( 'NONE', #13, .T. ) ;
#85 = CC_DESIGN_PERSON_AND_ORGANIZATION_ASSIGNMENT ( #148, #89, ( #134 ) ) ;
#86 = ORIENTED_EDGE ( 'NONE', *, *, #44, .F. ) ;
#87 = PERSON_AND_ORGANIZATION ( #96, #167 ) ;
#88 = AXIS2_PLACEMENT_3D ( 'NONE', #119, #129, #150 ) ;
#89 = PERSON_AND_ORGANIZATION_ROLE ( 'classification_officer' ) ;
#90 = LOCAL_TIME ( 14, 37, 10.00000000000000000, #35 ) ;
#91 = MECHANICAL_CONTEXT ( 'NONE', #17, 'mechanical' ) ;
#92 = DATE_TIME_ROLE ( 'classification_date' ) ;
#93 = CC_DESIGN_DATE_AND_TIME_ASSIGNMENT ( #118, #4, ( #50 ) ) ;
#94 = PLANE ( 'NONE',  #61 ) ;
#95 = CALENDAR_DATE ( 2017, 31, 1 ) ;
#96 = PERSON ( 'UNSPECIFIED', 'UNSPECIFIED', 'UNSPECIFIED', ('UNSPECIFIED'), ('UNSPECIFIED'), ('UNSPECIFIED') ) ;
#97 =( GEOMETRIC_REPRESENTATION_CONTEXT ( 3 ) GLOBAL_UNCERTAINTY_ASSIGNED_CONTEXT ( ( #98 ) ) GLOBAL_UNIT_ASSIGNED_CONTEXT ( ( #2, #138, #152 ) ) REPRESENTATION_CONTEXT ( 'NONE', 'WORKASPACE' ) );
#98 = UNCERTAINTY_MEASURE_WITH_UNIT (LENGTH_MEASURE( 1.000000000000000100E-005 ), #2, 'distance_accuracy_value', 'NONE');
#99 = DIRECTION ( 'NONE',  ( 1.000000000000000000, 0.0000000000000000000, 0.0000000000000000000 ) ) ;
#100 = CARTESIAN_POINT ( 'NONE',  ( 0.0000000000000000000, 0.0000000000000000000, 3.000000000000000000 ) ) ;
#101 = COORDINATED_UNIVERSAL_TIME_OFFSET ( 5, 0, .BEHIND. ) ;
#102 = CC_DESIGN_APPROVAL ( #58, ( #50 ) ) ;
#103 = CYLINDRICAL_SURFACE ( 'NONE', #23, 12.50000000000000000 ) ;
#104 = DESIGN_CONTEXT ( 'detailed design', #143, 'design' ) ;
#105 = PERSON_AND_ORGANIZATION ( #96, #167 ) ;
#106 = CC_DESIGN_PERSON_AND_ORGANIZATION_ASSIGNMENT ( #128, #76, ( #163 ) ) ;
#107 = APPLICATION_PROTOCOL_DEFINITION ( 'international standard', 'config_control_design', 1994, #17 ) ;
#108 = PERSON_AND_ORGANIZATION ( #96, #167 ) ;
#109 = DIRECTION ( 'NONE',  ( 0.0000000000000000000, 0.0000000000000000000, 1.000000000000000000 ) ) ;
#110 = CALENDAR_DATE ( 2017, 31, 1 ) ;
#111 = CALENDAR_DATE ( 2017, 31, 1 ) ;
#112 = LINE ( 'NONE', #11, #149 ) ;
#113 = VERTEX_POINT ( 'NONE', #69 ) ;
#114 = ADVANCED_BREP_SHAPE_REPRESENTATION ( 'Web Model 66201', ( #22, #145 ), #97 ) ;
#115 = CARTESIAN_POINT ( 'NONE',  ( -12.50000000000000000, 0.0000000000000000000, 0.0000000000000000000 ) ) ;
#116 = EDGE_CURVE ( 'NONE', #46, #42, #141, .T. ) ;
#117 = CARTESIAN_POINT ( 'NONE',  ( 0.0000000000000000000, 0.0000000000000000000, 3.000000000000000000 ) ) ;
#118 = DATE_AND_TIME ( #12, #123 ) ;
#119 = CARTESIAN_POINT ( 'NONE',  ( 0.0000000000000000000, 0.0000000000000000000, 3.000000000000000000 ) ) ;
#120 = ORIENTED_EDGE ( 'NONE', *, *, #116, .F. ) ;
#121 = CIRCLE ( 'NONE', #136, 12.50000000000000000 ) ;
#122 = APPLICATION_PROTOCOL_DEFINITION ( 'international standard', 'config_control_design', 1994, #143 ) ;
#123 = LOCAL_TIME ( 14, 37, 10.00000000000000000, #63 ) ;
#124 = APPROVAL_STATUS ( 'not_yet_approved' ) ;
#125 = DIRECTION ( 'NONE',  ( 0.0000000000000000000, 0.0000000000000000000, 1.000000000000000000 ) ) ;
#126 = DATE_AND_TIME ( #21, #59 ) ;
#127 = EDGE_LOOP ( 'NONE', ( #32, #171 ) ) ;
#128 = PERSON_AND_ORGANIZATION ( #96, #167 ) ;
#129 = DIRECTION ( 'NONE',  ( -0.0000000000000000000, -0.0000000000000000000, -1.000000000000000000 ) ) ;
#130 = DIRECTION ( 'NONE',  ( 0.0000000000000000000, 0.0000000000000000000, 1.000000000000000000 ) ) ;
#131 = APPROVAL_ROLE ( '' ) ;
#132 = VECTOR ( 'NONE', #39, 1000.000000000000000 ) ;
#133 = DIRECTION ( 'NONE',  ( 1.000000000000000000, 0.0000000000000000000, 0.0000000000000000000 ) ) ;
#134 = SECURITY_CLASSIFICATION ( '', '', #19 ) ;
#135 = LOCAL_TIME ( 14, 37, 10.00000000000000000, #68 ) ;
#136 = AXIS2_PLACEMENT_3D ( 'NONE', #47, #125, #172 ) ;
#137 = DIRECTION ( 'NONE',  ( -0.0000000000000000000, -0.0000000000000000000, -1.000000000000000000 ) ) ;
#138 =( NAMED_UNIT ( * ) PLANE_ANGLE_UNIT ( ) SI_UNIT ( $, .RADIAN. ) );
#139 = EDGE_LOOP ( 'NONE', ( #80, #120, #27, #37 ) ) ;
#140 = APPROVAL_ROLE ( '' ) ;
#141 = CIRCLE ( 'NONE', #15, 12.50000000000000000 ) ;
#142 = DATE_AND_TIME ( #95, #78 ) ;
#143 = APPLICATION_CONTEXT ( 'configuration controlled 3d designs of mechanical parts and assemblies' ) ;
#144 = PRODUCT_RELATED_PRODUCT_CATEGORY ( 'detail', '', ( #163 ) ) ;
#145 = AXIS2_PLACEMENT_3D ( 'NONE', #74, #169, #56 ) ;
#146 = VERTEX_POINT ( 'NONE', #115 ) ;
#147 = CARTESIAN_POINT ( 'NONE',  ( -12.50000000000000000, 0.0000000000000000000, 3.000000000000000000 ) ) ;
#148 = PERSON_AND_ORGANIZATION ( #96, #167 ) ;
#149 = VECTOR ( 'NONE', #137, 1000.000000000000000 ) ;
#150 = DIRECTION ( 'NONE',  ( -1.000000000000000000, 0.0000000000000000000, 0.0000000000000000000 ) ) ;
#151 = CARTESIAN_POINT ( 'NONE',  ( -12.50000000000000000, 0.0000000000000000000, 3.000000000000000000 ) ) ;
#152 =( NAMED_UNIT ( * ) SI_UNIT ( $, .STERADIAN. ) SOLID_ANGLE_UNIT ( ) );
#153 = LINE ( 'NONE', #147, #132 ) ;
#154 = CC_DESIGN_PERSON_AND_ORGANIZATION_ASSIGNMENT ( #105, #43, ( #50 ) ) ;
#155 = ORIENTED_EDGE ( 'NONE', *, *, #7, .F. ) ;
#156 = APPROVAL_DATE_TIME ( #126, #72 ) ;
#157 = EDGE_CURVE ( 'NONE', #42, #113, #112, .T. ) ;
#158 = PERSON_AND_ORGANIZATION_ROLE ( 'creator' ) ;
#159 = ADVANCED_FACE ( 'NONE', ( #84 ), #103, .T. ) ;
#160 = CIRCLE ( 'NONE', #52, 12.50000000000000000 ) ;
#161 = CARTESIAN_POINT ( 'NONE',  ( 12.50000000000000000, 1.530808498934191500E-015, 3.000000000000000000 ) ) ;
#162 = PLANE ( 'NONE',  #33 ) ;
#163 = PRODUCT ( 'Web Model 66201', 'Web Model 66201', '', ( #91 ) ) ;
#164 = PRODUCT_DEFINITION_FORMATION_WITH_SPECIFIED_SOURCE ( 'ANY', '', #163, .NOT_KNOWN. ) ;
#165 = CC_DESIGN_PERSON_AND_ORGANIZATION_ASSIGNMENT ( #108, #29, ( #164 ) ) ;
#166 = PERSON_AND_ORGANIZATION ( #96, #167 ) ;
#167 = ORGANIZATION ( 'UNSPECIFIED', 'UNSPECIFIED', '' ) ;
#168 = EDGE_CURVE ( 'NONE', #146, #113, #160, .T. ) ;
#169 = DIRECTION ( 'NONE',  ( 0.0000000000000000000, 0.0000000000000000000, 1.000000000000000000 ) ) ;
#170 = APPROVAL ( #124, 'UNSPECIFIED' ) ;
#171 = ORIENTED_EDGE ( 'NONE', *, *, #1, .F. ) ;
#172 = DIRECTION ( 'NONE',  ( 1.000000000000000000, 0.0000000000000000000, 0.0000000000000000000 ) ) ;
#173 = DATE_AND_TIME ( #110, #135 ) ;
#174 = CC_DESIGN_PERSON_AND_ORGANIZATION_ASSIGNMENT ( #166, #158, ( #164 ) ) ;
#175 = ORIENTED_EDGE ( 'NONE', *, *, #7, .T. ) ;
ENDSEC;
END-ISO-10303-21;
