ISO-10303-21;
HEADER;
FILE_DESCRIPTION (( 'STEP AP203' ),
    '1' );
FILE_NAME ('Web Model 17600_17602.step',
    '2021-06-14T14:04:38',
    ( '' ),
    ( '' ),
    'SwSTEP 2.0',
    'SolidWorks 2018',
    '' );
FILE_SCHEMA (( 'CONFIG_CONTROL_DESIGN' ));
ENDSEC;

DATA;
#1 = PERSON ( 'UNSPECIFIED', 'UNSPECIFIED', 'UNSPECIFIED', ('UNSPECIFIED'), ('UNSPECIFIED'), ('UNSPECIFIED') ) ;
#2 = ORIENTED_EDGE ( 'NONE', *, *, #146, .F. ) ;
#3 = EDGE_LOOP ( 'NONE', ( #2, #155 ) ) ;
#4 = DIRECTION ( 'NONE',  ( 0.000000000000000000, 0.000000000000000000, 1.000000000000000000 ) ) ;
#5 = APPROVAL_ROLE ( '' ) ;
#6 = DIRECTION ( 'NONE',  ( 1.000000000000000000, 0.000000000000000000, 0.000000000000000000 ) ) ;
#7 = PERSON_AND_ORGANIZATION_ROLE ( 'creator' ) ;
#8 = PERSON_AND_ORGANIZATION ( #1, #49 ) ;
#9 = EDGE_LOOP ( 'NONE', ( #62, #78 ) ) ;
#10 = APPLICATION_PROTOCOL_DEFINITION ( 'international standard', 'config_control_design', 1994, #173 ) ;
#11 = APPROVAL_STATUS ( 'not_yet_approved' ) ;
#12 = VERTEX_POINT ( 'NONE', #113 ) ;
#13 = COORDINATED_UNIVERSAL_TIME_OFFSET ( 5, 0, .BEHIND. ) ;
#14 = CC_DESIGN_APPROVAL ( #168, ( #158 ) ) ;
#15 = CALENDAR_DATE ( 2021, 14, 6 ) ;
#16 = CYLINDRICAL_SURFACE ( 'NONE', #58, 6.349999999999999645 ) ;
#17 = CC_DESIGN_SECURITY_CLASSIFICATION ( #158, ( #91 ) ) ;
#18 = AXIS2_PLACEMENT_3D ( 'NONE', #127, #85, #128 ) ;
#19 = ORIENTED_EDGE ( 'NONE', *, *, #135, .F. ) ;
#20 = LINE ( 'NONE', #83, #112 ) ;
#21 = DIRECTION ( 'NONE',  ( -1.000000000000000000, 0.000000000000000000, 0.000000000000000000 ) ) ;
#22 = EDGE_CURVE ( 'NONE', #46, #33, #64, .T. ) ;
#23 = APPROVAL_DATE_TIME ( #166, #168 ) ;
#24 = APPLICATION_CONTEXT ( 'configuration controlled 3d designs of mechanical parts and assemblies' ) ;
#25 =( NAMED_UNIT ( * ) SI_UNIT ( $, .STERADIAN. ) SOLID_ANGLE_UNIT ( ) );
#26 = DATE_TIME_ROLE ( 'creation_date' ) ;
#27 = LOCAL_TIME ( 10, 4, 38.00000000000000000, #52 ) ;
#28 = CIRCLE ( 'NONE', #56, 6.349999999999999645 ) ;
#29 = APPROVAL_DATE_TIME ( #68, #96 ) ;
#30 = PRODUCT_DEFINITION_SHAPE ( 'NONE', 'NONE',  #167 ) ;
#31 = EDGE_LOOP ( 'NONE', ( #152, #43, #47, #93 ) ) ;
#32 = CIRCLE ( 'NONE', #18, 6.349999999999999645 ) ;
#33 = VERTEX_POINT ( 'NONE', #117 ) ;
#34 = AXIS2_PLACEMENT_3D ( 'NONE', #84, #100, #21 ) ;
#35 = PRODUCT_RELATED_PRODUCT_CATEGORY ( 'detail', '', ( #150 ) ) ;
#36 = CARTESIAN_POINT ( 'NONE',  ( -6.349999999999999645, 0.000000000000000000, 0.000000000000000000 ) ) ;
#37 = CARTESIAN_POINT ( 'NONE',  ( 0.000000000000000000, 0.000000000000000000, 2.000000000000000000 ) ) ;
#38 = LOCAL_TIME ( 10, 4, 38.00000000000000000, #67 ) ;
#39 = DIRECTION ( 'NONE',  ( -0.000000000000000000, -0.000000000000000000, -1.000000000000000000 ) ) ;
#40 = DIRECTION ( 'NONE',  ( 0.000000000000000000, 0.000000000000000000, 1.000000000000000000 ) ) ;
#41 = EDGE_CURVE ( 'NONE', #33, #12, #20, .T. ) ;
#42 = CALENDAR_DATE ( 2021, 14, 6 ) ;
#43 = ORIENTED_EDGE ( 'NONE', *, *, #22, .F. ) ;
#44 = APPROVAL ( #51, 'UNSPECIFIED' ) ;
#45 = SHAPE_DEFINITION_REPRESENTATION ( #30, #105 ) ;
#46 = VERTEX_POINT ( 'NONE', #143 ) ;
#47 = ORIENTED_EDGE ( 'NONE', *, *, #135, .T. ) ;
#48 = CALENDAR_DATE ( 2021, 14, 6 ) ;
#49 = ORGANIZATION ( 'UNSPECIFIED', 'UNSPECIFIED', '' ) ;
#50 = PERSON_AND_ORGANIZATION_ROLE ( 'design_supplier' ) ;
#51 = APPROVAL_STATUS ( 'not_yet_approved' ) ;
#52 = COORDINATED_UNIVERSAL_TIME_OFFSET ( 5, 0, .BEHIND. ) ;
#53 = VERTEX_POINT ( 'NONE', #36 ) ;
#54 = COORDINATED_UNIVERSAL_TIME_OFFSET ( 5, 0, .BEHIND. ) ;
#55 = LOCAL_TIME ( 10, 4, 38.00000000000000000, #13 ) ;
#56 = AXIS2_PLACEMENT_3D ( 'NONE', #162, #131, #6 ) ;
#57 = APPROVAL_DATE_TIME ( #102, #44 ) ;
#58 = AXIS2_PLACEMENT_3D ( 'NONE', #87, #130, #72 ) ;
#59 = CIRCLE ( 'NONE', #140, 6.349999999999999645 ) ;
#60 = APPROVAL_PERSON_ORGANIZATION ( #92, #168, #120 ) ;
#61 =( LENGTH_UNIT ( ) NAMED_UNIT ( * ) SI_UNIT ( .MILLI., .METRE. ) );
#62 = ORIENTED_EDGE ( 'NONE', *, *, #22, .T. ) ;
#63 = PERSON_AND_ORGANIZATION ( #1, #49 ) ;
#64 = CIRCLE ( 'NONE', #90, 6.349999999999999645 ) ;
#65 = CC_DESIGN_APPROVAL ( #44, ( #167 ) ) ;
#66 = ADVANCED_FACE ( 'NONE', ( #171 ), #107, .T. ) ;
#67 = COORDINATED_UNIVERSAL_TIME_OFFSET ( 5, 0, .BEHIND. ) ;
#68 = DATE_AND_TIME ( #48, #75 ) ;
#69 = DIRECTION ( 'NONE',  ( 0.000000000000000000, 0.000000000000000000, 1.000000000000000000 ) ) ;
#70 = PLANE ( 'NONE',  #110 ) ;
#71 = APPLICATION_PROTOCOL_DEFINITION ( 'international standard', 'config_control_design', 1994, #24 ) ;
#72 = DIRECTION ( 'NONE',  ( -1.000000000000000000, 0.000000000000000000, 0.000000000000000000 ) ) ;
#73 = VECTOR ( 'NONE', #144, 1000.000000000000000 ) ;
#74 = MECHANICAL_CONTEXT ( 'NONE', #24, 'mechanical' ) ;
#75 = LOCAL_TIME ( 10, 4, 38.00000000000000000, #54 ) ;
#76 = ORIENTED_EDGE ( 'NONE', *, *, #41, .T. ) ;
#77 = AXIS2_PLACEMENT_3D ( 'NONE', #103, #40, #104 ) ;
#78 = ORIENTED_EDGE ( 'NONE', *, *, #172, .T. ) ;
#79 = LINE ( 'NONE', #159, #73 ) ;
#80 = ADVANCED_FACE ( 'NONE', ( #149 ), #116, .F. ) ;
#81 = PERSON_AND_ORGANIZATION ( #1, #49 ) ;
#82 = CLOSED_SHELL ( 'NONE', ( #153, #66, #141, #80 ) ) ;
#83 = CARTESIAN_POINT ( 'NONE',  ( 6.349999999999999645, 7.776507174585692163E-16, 2.000000000000000000 ) ) ;
#84 = CARTESIAN_POINT ( 'NONE',  ( 0.000000000000000000, 0.000000000000000000, 2.000000000000000000 ) ) ;
#85 = DIRECTION ( 'NONE',  ( 0.000000000000000000, 0.000000000000000000, 1.000000000000000000 ) ) ;
#86 = PERSON_AND_ORGANIZATION_ROLE ( 'creator' ) ;
#87 = CARTESIAN_POINT ( 'NONE',  ( 0.000000000000000000, 0.000000000000000000, 2.000000000000000000 ) ) ;
#88 =( NAMED_UNIT ( * ) PLANE_ANGLE_UNIT ( ) SI_UNIT ( $, .RADIAN. ) );
#89 = PERSON_AND_ORGANIZATION ( #1, #49 ) ;
#90 = AXIS2_PLACEMENT_3D ( 'NONE', #126, #4, #170 ) ;
#91 = PRODUCT_DEFINITION_FORMATION_WITH_SPECIFIED_SOURCE ( 'ANY', '', #150, .NOT_KNOWN. ) ;
#92 = PERSON_AND_ORGANIZATION ( #1, #49 ) ;
#93 = ORIENTED_EDGE ( 'NONE', *, *, #146, .T. ) ;
#94 = ORIENTED_EDGE ( 'NONE', *, *, #137, .T. ) ;
#95 = DESIGN_CONTEXT ( 'detailed design', #173, 'design' ) ;
#96 = APPROVAL ( #11, 'UNSPECIFIED' ) ;
#97 = EDGE_LOOP ( 'NONE', ( #165, #76, #94, #19 ) ) ;
#98 = CC_DESIGN_PERSON_AND_ORGANIZATION_ASSIGNMENT ( #81, #86, ( #167 ) ) ;
#99 = DIRECTION ( 'NONE',  ( 1.000000000000000000, 0.000000000000000000, -0.000000000000000000 ) ) ;
#100 = DIRECTION ( 'NONE',  ( -0.000000000000000000, -0.000000000000000000, -1.000000000000000000 ) ) ;
#101 = CC_DESIGN_DATE_AND_TIME_ASSIGNMENT ( #111, #26, ( #167 ) ) ;
#102 = DATE_AND_TIME ( #138, #38 ) ;
#103 = CARTESIAN_POINT ( 'NONE',  ( 0.000000000000000000, 0.000000000000000000, 0.000000000000000000 ) ) ;
#104 = DIRECTION ( 'NONE',  ( 1.000000000000000000, 0.000000000000000000, 0.000000000000000000 ) ) ;
#105 = ADVANCED_BREP_SHAPE_REPRESENTATION ( 'Web Model 17600_17602', ( #136, #77 ), #124 ) ;
#106 = APPROVAL_ROLE ( '' ) ;
#107 = CYLINDRICAL_SURFACE ( 'NONE', #34, 6.349999999999999645 ) ;
#108 = APPROVAL_PERSON_ORGANIZATION ( #145, #44, #106 ) ;
#109 = CC_DESIGN_APPROVAL ( #96, ( #91 ) ) ;
#110 = AXIS2_PLACEMENT_3D ( 'NONE', #37, #69, #99 ) ;
#111 = DATE_AND_TIME ( #42, #27 ) ;
#112 = VECTOR ( 'NONE', #39, 1000.000000000000000 ) ;
#113 = CARTESIAN_POINT ( 'NONE',  ( 6.349999999999999645, 7.776507174585692163E-16, 0.000000000000000000 ) ) ;
#114 = PERSON_AND_ORGANIZATION ( #1, #49 ) ;
#115 = PERSON_AND_ORGANIZATION ( #1, #49 ) ;
#116 = PLANE ( 'NONE',  #154 ) ;
#117 = CARTESIAN_POINT ( 'NONE',  ( 6.349999999999999645, 7.776507174585692163E-16, 2.000000000000000000 ) ) ;
#118 = DIRECTION ( 'NONE',  ( 1.000000000000000000, 0.000000000000000000, 0.000000000000000000 ) ) ;
#119 = LOCAL_TIME ( 10, 4, 38.00000000000000000, #122 ) ;
#120 = APPROVAL_ROLE ( '' ) ;
#121 = DIRECTION ( 'NONE',  ( 0.000000000000000000, 0.000000000000000000, 1.000000000000000000 ) ) ;
#122 = COORDINATED_UNIVERSAL_TIME_OFFSET ( 5, 0, .BEHIND. ) ;
#123 = CC_DESIGN_DATE_AND_TIME_ASSIGNMENT ( #163, #147, ( #158 ) ) ;
#124 =( GEOMETRIC_REPRESENTATION_CONTEXT ( 3 ) GLOBAL_UNCERTAINTY_ASSIGNED_CONTEXT ( ( #160 ) ) GLOBAL_UNIT_ASSIGNED_CONTEXT ( ( #61, #88, #25 ) ) REPRESENTATION_CONTEXT ( 'NONE', 'WORKASPACE' ) );
#125 = FACE_OUTER_BOUND ( 'NONE', #97, .T. ) ;
#126 = CARTESIAN_POINT ( 'NONE',  ( 0.000000000000000000, 0.000000000000000000, 2.000000000000000000 ) ) ;
#127 = CARTESIAN_POINT ( 'NONE',  ( 0.000000000000000000, 0.000000000000000000, 0.000000000000000000 ) ) ;
#128 = DIRECTION ( 'NONE',  ( 1.000000000000000000, 0.000000000000000000, 0.000000000000000000 ) ) ;
#129 = PERSON_AND_ORGANIZATION_ROLE ( 'classification_officer' ) ;
#130 = DIRECTION ( 'NONE',  ( -0.000000000000000000, -0.000000000000000000, -1.000000000000000000 ) ) ;
#131 = DIRECTION ( 'NONE',  ( 0.000000000000000000, 0.000000000000000000, 1.000000000000000000 ) ) ;
#132 = APPROVAL_PERSON_ORGANIZATION ( #89, #96, #5 ) ;
#133 = SECURITY_CLASSIFICATION_LEVEL ( 'unclassified' ) ;
#134 = FACE_OUTER_BOUND ( 'NONE', #9, .T. ) ;
#135 = EDGE_CURVE ( 'NONE', #46, #53, #79, .T. ) ;
#136 = MANIFOLD_SOLID_BREP ( 'Boss-Extrude1', #82 ) ;
#137 = EDGE_CURVE ( 'NONE', #12, #53, #32, .T. ) ;
#138 = CALENDAR_DATE ( 2021, 14, 6 ) ;
#139 = CC_DESIGN_PERSON_AND_ORGANIZATION_ASSIGNMENT ( #8, #129, ( #158 ) ) ;
#140 = AXIS2_PLACEMENT_3D ( 'NONE', #148, #121, #118 ) ;
#141 = ADVANCED_FACE ( 'NONE', ( #134 ), #70, .T. ) ;
#142 = DIRECTION ( 'NONE',  ( 1.000000000000000000, 0.000000000000000000, -0.000000000000000000 ) ) ;
#143 = CARTESIAN_POINT ( 'NONE',  ( -6.349999999999999645, 0.000000000000000000, 2.000000000000000000 ) ) ;
#144 = DIRECTION ( 'NONE',  ( -0.000000000000000000, -0.000000000000000000, -1.000000000000000000 ) ) ;
#145 = PERSON_AND_ORGANIZATION ( #1, #49 ) ;
#146 = EDGE_CURVE ( 'NONE', #53, #12, #59, .T. ) ;
#147 = DATE_TIME_ROLE ( 'classification_date' ) ;
#148 = CARTESIAN_POINT ( 'NONE',  ( 0.000000000000000000, 0.000000000000000000, 0.000000000000000000 ) ) ;
#149 = FACE_OUTER_BOUND ( 'NONE', #3, .T. ) ;
#150 = PRODUCT ( 'Web Model 17600_17602', 'Web Model 17600_17602', '', ( #74 ) ) ;
#151 = CC_DESIGN_PERSON_AND_ORGANIZATION_ASSIGNMENT ( #63, #7, ( #91 ) ) ;
#152 = ORIENTED_EDGE ( 'NONE', *, *, #41, .F. ) ;
#153 = ADVANCED_FACE ( 'NONE', ( #125 ), #16, .T. ) ;
#154 = AXIS2_PLACEMENT_3D ( 'NONE', #174, #157, #142 ) ;
#155 = ORIENTED_EDGE ( 'NONE', *, *, #137, .F. ) ;
#156 = CC_DESIGN_PERSON_AND_ORGANIZATION_ASSIGNMENT ( #115, #161, ( #150 ) ) ;
#157 = DIRECTION ( 'NONE',  ( 0.000000000000000000, 0.000000000000000000, 1.000000000000000000 ) ) ;
#158 = SECURITY_CLASSIFICATION ( '', '', #133 ) ;
#159 = CARTESIAN_POINT ( 'NONE',  ( -6.349999999999999645, 0.000000000000000000, 2.000000000000000000 ) ) ;
#160 = UNCERTAINTY_MEASURE_WITH_UNIT (LENGTH_MEASURE( 1.000000000000000082E-05 ), #61, 'distance_accuracy_value', 'NONE');
#161 = PERSON_AND_ORGANIZATION_ROLE ( 'design_owner' ) ;
#162 = CARTESIAN_POINT ( 'NONE',  ( 0.000000000000000000, 0.000000000000000000, 2.000000000000000000 ) ) ;
#163 = DATE_AND_TIME ( #164, #119 ) ;
#164 = CALENDAR_DATE ( 2021, 14, 6 ) ;
#165 = ORIENTED_EDGE ( 'NONE', *, *, #172, .F. ) ;
#166 = DATE_AND_TIME ( #15, #55 ) ;
#167 = PRODUCT_DEFINITION ( 'UNKNOWN', '', #91, #95 ) ;
#168 = APPROVAL ( #175, 'UNSPECIFIED' ) ;
#169 = CC_DESIGN_PERSON_AND_ORGANIZATION_ASSIGNMENT ( #114, #50, ( #91 ) ) ;
#170 = DIRECTION ( 'NONE',  ( 1.000000000000000000, 0.000000000000000000, 0.000000000000000000 ) ) ;
#171 = FACE_OUTER_BOUND ( 'NONE', #31, .T. ) ;
#172 = EDGE_CURVE ( 'NONE', #33, #46, #28, .T. ) ;
#173 = APPLICATION_CONTEXT ( 'configuration controlled 3d designs of mechanical parts and assemblies' ) ;
#174 = CARTESIAN_POINT ( 'NONE',  ( 0.000000000000000000, 0.000000000000000000, 0.000000000000000000 ) ) ;
#175 = APPROVAL_STATUS ( 'not_yet_approved' ) ;
ENDSEC;
END-ISO-10303-21;
