ISO-10303-21;
HEADER;
FILE_DESCRIPTION (( 'STEP AP203' ),
    '1' );
FILE_NAME ('Web Model 38911_39003.step',
    '2018-10-18T19:48:18',
    ( '' ),
    ( '' ),
    'SwSTEP 2.0',
    'SolidWorks 2016',
    '' );
FILE_SCHEMA (( 'CONFIG_CONTROL_DESIGN' ));
ENDSEC;

DATA;
#1 =( GEOMETRIC_REPRESENTATION_CONTEXT ( 3 ) GLOBAL_UNCERTAINTY_ASSIGNED_CONTEXT ( ( #65 ) ) GLOBAL_UNIT_ASSIGNED_CONTEXT ( ( #19, #138, #89 ) ) REPRESENTATION_CONTEXT ( 'NONE', 'WORKASPACE' ) );
#2 = CARTESIAN_POINT ( 'NONE',  ( 0.0000000000000000000, 0.0000000000000000000, -3.174999999999999800 ) ) ;
#3 = CC_DESIGN_PERSON_AND_ORGANIZATION_ASSIGNMENT ( #94, #154, ( #172 ) ) ;
#4 = DIRECTION ( 'NONE',  ( 1.000000000000000000, 0.0000000000000000000, 0.0000000000000000000 ) ) ;
#5 = APPROVAL_STATUS ( 'not_yet_approved' ) ;
#6 = APPROVAL_ROLE ( '' ) ;
#7 = DATE_AND_TIME ( #39, #141 ) ;
#8 = AXIS2_PLACEMENT_3D ( 'NONE', #134, #168, #58 ) ;
#9 = LINE ( 'NONE', #152, #49 ) ;
#10 = LOCAL_TIME ( 15, 48, 18.00000000000000000, #81 ) ;
#11 = EDGE_LOOP ( 'NONE', ( #85, #46 ) ) ;
#12 = COORDINATED_UNIVERSAL_TIME_OFFSET ( 5, 0, .BEHIND. ) ;
#13 = EDGE_LOOP ( 'NONE', ( #148, #71, #136, #110 ) ) ;
#14 = DIRECTION ( 'NONE',  ( 1.000000000000000000, 0.0000000000000000000, 0.0000000000000000000 ) ) ;
#15 = DIRECTION ( 'NONE',  ( 1.000000000000000000, 0.0000000000000000000, -0.0000000000000000000 ) ) ;
#16 = CARTESIAN_POINT ( 'NONE',  ( 9.550000000000000700, 1.169537693185722600E-015, 3.174999999999999800 ) ) ;
#17 = LOCAL_TIME ( 15, 48, 18.00000000000000000, #23 ) ;
#18 = CARTESIAN_POINT ( 'NONE',  ( -9.550000000000000700, 0.0000000000000000000, -3.174999999999999800 ) ) ;
#19 =( LENGTH_UNIT ( ) NAMED_UNIT ( * ) SI_UNIT ( .MILLI., .METRE. ) );
#20 = PERSON_AND_ORGANIZATION ( #109, #162 ) ;
#21 = ORIENTED_EDGE ( 'NONE', *, *, #142, .T. ) ;
#22 = CC_DESIGN_APPROVAL ( #78, ( #52 ) ) ;
#23 = COORDINATED_UNIVERSAL_TIME_OFFSET ( 5, 0, .BEHIND. ) ;
#24 = PRODUCT_RELATED_PRODUCT_CATEGORY ( 'detail', '', ( #122 ) ) ;
#25 = AXIS2_PLACEMENT_3D ( 'NONE', #2, #38, #114 ) ;
#26 = ORIENTED_EDGE ( 'NONE', *, *, #43, .F. ) ;
#27 = CIRCLE ( 'NONE', #47, 9.550000000000000700 ) ;
#28 = DIRECTION ( 'NONE',  ( -1.000000000000000000, 0.0000000000000000000, 0.0000000000000000000 ) ) ;
#29 = DIRECTION ( 'NONE',  ( 1.000000000000000000, 0.0000000000000000000, -0.0000000000000000000 ) ) ;
#30 = PLANE ( 'NONE',  #130 ) ;
#31 = AXIS2_PLACEMENT_3D ( 'NONE', #132, #87, #14 ) ;
#32 = APPROVAL_ROLE ( '' ) ;
#33 = APPLICATION_CONTEXT ( 'configuration controlled 3d designs of mechanical parts and assemblies' ) ;
#34 = EDGE_CURVE ( 'NONE', #93, #163, #50, .T. ) ;
#35 = AXIS2_PLACEMENT_3D ( 'NONE', #41, #127, #15 ) ;
#36 = EDGE_CURVE ( 'NONE', #64, #126, #155, .T. ) ;
#37 = DATE_AND_TIME ( #124, #17 ) ;
#38 = DIRECTION ( 'NONE',  ( 0.0000000000000000000, 0.0000000000000000000, 1.000000000000000000 ) ) ;
#39 = CALENDAR_DATE ( 2018, 18, 10 ) ;
#40 = FACE_OUTER_BOUND ( 'NONE', #13, .T. ) ;
#41 = CARTESIAN_POINT ( 'NONE',  ( 0.0000000000000000000, 0.0000000000000000000, 3.174999999999999800 ) ) ;
#42 = CC_DESIGN_PERSON_AND_ORGANIZATION_ASSIGNMENT ( #121, #44, ( #122 ) ) ;
#43 = EDGE_CURVE ( 'NONE', #163, #93, #27, .T. ) ;
#44 = PERSON_AND_ORGANIZATION_ROLE ( 'design_owner' ) ;
#45 = FACE_OUTER_BOUND ( 'NONE', #11, .T. ) ;
#46 = ORIENTED_EDGE ( 'NONE', *, *, #36, .T. ) ;
#47 = AXIS2_PLACEMENT_3D ( 'NONE', #98, #164, #54 ) ;
#48 = APPROVAL_DATE_TIME ( #161, #78 ) ;
#49 = VECTOR ( 'NONE', #104, 1000.000000000000000 ) ;
#50 = CIRCLE ( 'NONE', #25, 9.550000000000000700 ) ;
#51 = APPROVAL_DATE_TIME ( #7, #86 ) ;
#52 = PRODUCT_DEFINITION ( 'UNKNOWN', '', #67, #68 ) ;
#53 = AXIS2_PLACEMENT_3D ( 'NONE', #149, #167, #4 ) ;
#54 = DIRECTION ( 'NONE',  ( 1.000000000000000000, 0.0000000000000000000, 0.0000000000000000000 ) ) ;
#55 = ADVANCED_FACE ( 'NONE', ( #45 ), #166, .T. ) ;
#56 = CC_DESIGN_PERSON_AND_ORGANIZATION_ASSIGNMENT ( #135, #117, ( #52 ) ) ;
#57 = DATE_AND_TIME ( #80, #99 ) ;
#58 = DIRECTION ( 'NONE',  ( 1.000000000000000000, 0.0000000000000000000, 0.0000000000000000000 ) ) ;
#59 = PERSON_AND_ORGANIZATION_ROLE ( 'design_supplier' ) ;
#60 = APPLICATION_PROTOCOL_DEFINITION ( 'international standard', 'config_control_design', 1994, #33 ) ;
#61 = MANIFOLD_SOLID_BREP ( 'Boss-Extrude1', #108 ) ;
#62 = CC_DESIGN_DATE_AND_TIME_ASSIGNMENT ( #57, #170, ( #52 ) ) ;
#63 = CC_DESIGN_APPROVAL ( #96, ( #172 ) ) ;
#64 = VERTEX_POINT ( 'NONE', #16 ) ;
#65 = UNCERTAINTY_MEASURE_WITH_UNIT (LENGTH_MEASURE( 1.000000000000000100E-005 ), #19, 'distance_accuracy_value', 'NONE');
#66 = DIRECTION ( 'NONE',  ( -1.000000000000000000, 0.0000000000000000000, 0.0000000000000000000 ) ) ;
#67 = PRODUCT_DEFINITION_FORMATION_WITH_SPECIFIED_SOURCE ( 'ANY', '', #122, .NOT_KNOWN. ) ;
#68 = DESIGN_CONTEXT ( 'detailed design', #140, 'design' ) ;
#69 = DATE_AND_TIME ( #143, #156 ) ;
#70 = COORDINATED_UNIVERSAL_TIME_OFFSET ( 5, 0, .BEHIND. ) ;
#71 = ORIENTED_EDGE ( 'NONE', *, *, #139, .T. ) ;
#72 = CC_DESIGN_APPROVAL ( #86, ( #67 ) ) ;
#73 = ADVANCED_FACE ( 'NONE', ( #173 ), #123, .T. ) ;
#74 = PERSON_AND_ORGANIZATION ( #109, #162 ) ;
#75 = CARTESIAN_POINT ( 'NONE',  ( 0.0000000000000000000, 0.0000000000000000000, 3.174999999999999800 ) ) ;
#76 = PRODUCT_DEFINITION_SHAPE ( 'NONE', 'NONE',  #52 ) ;
#77 = APPROVAL_DATE_TIME ( #69, #96 ) ;
#78 = APPROVAL ( #103, 'UNSPECIFIED' ) ;
#79 = MECHANICAL_CONTEXT ( 'NONE', #33, 'mechanical' ) ;
#80 = CALENDAR_DATE ( 2018, 18, 10 ) ;
#81 = COORDINATED_UNIVERSAL_TIME_OFFSET ( 5, 0, .BEHIND. ) ;
#82 = APPROVAL_PERSON_ORGANIZATION ( #147, #78, #118 ) ;
#83 = EDGE_LOOP ( 'NONE', ( #158, #131, #21, #92 ) ) ;
#84 = COORDINATED_UNIVERSAL_TIME_OFFSET ( 5, 0, .BEHIND. ) ;
#85 = ORIENTED_EDGE ( 'NONE', *, *, #91, .T. ) ;
#86 = APPROVAL ( #102, 'UNSPECIFIED' ) ;
#87 = DIRECTION ( 'NONE',  ( 0.0000000000000000000, 0.0000000000000000000, 1.000000000000000000 ) ) ;
#88 = DIRECTION ( 'NONE',  ( -0.0000000000000000000, -0.0000000000000000000, -1.000000000000000000 ) ) ;
#89 =( NAMED_UNIT ( * ) SI_UNIT ( $, .STERADIAN. ) SOLID_ANGLE_UNIT ( ) );
#90 = SECURITY_CLASSIFICATION_LEVEL ( 'unclassified' ) ;
#91 = EDGE_CURVE ( 'NONE', #126, #64, #145, .T. ) ;
#92 = ORIENTED_EDGE ( 'NONE', *, *, #43, .T. ) ;
#93 = VERTEX_POINT ( 'NONE', #128 ) ;
#94 = PERSON_AND_ORGANIZATION ( #109, #162 ) ;
#95 = CYLINDRICAL_SURFACE ( 'NONE', #101, 9.550000000000000700 ) ;
#96 = APPROVAL ( #5, 'UNSPECIFIED' ) ;
#97 = ADVANCED_BREP_SHAPE_REPRESENTATION ( 'Web Model 38911_39003', ( #61, #8 ), #1 ) ;
#98 = CARTESIAN_POINT ( 'NONE',  ( 0.0000000000000000000, 0.0000000000000000000, -3.174999999999999800 ) ) ;
#99 = LOCAL_TIME ( 15, 48, 18.00000000000000000, #12 ) ;
#100 = CARTESIAN_POINT ( 'NONE',  ( 0.0000000000000000000, 0.0000000000000000000, 3.174999999999999800 ) ) ;
#101 = AXIS2_PLACEMENT_3D ( 'NONE', #75, #88, #28 ) ;
#102 = APPROVAL_STATUS ( 'not_yet_approved' ) ;
#103 = APPROVAL_STATUS ( 'not_yet_approved' ) ;
#104 = DIRECTION ( 'NONE',  ( -0.0000000000000000000, -0.0000000000000000000, -1.000000000000000000 ) ) ;
#105 = APPLICATION_PROTOCOL_DEFINITION ( 'international standard', 'config_control_design', 1994, #140 ) ;
#106 = CC_DESIGN_PERSON_AND_ORGANIZATION_ASSIGNMENT ( #144, #119, ( #67 ) ) ;
#107 = APPROVAL_PERSON_ORGANIZATION ( #74, #86, #32 ) ;
#108 = CLOSED_SHELL ( 'NONE', ( #125, #73, #55, #165 ) ) ;
#109 = PERSON ( 'UNSPECIFIED', 'UNSPECIFIED', 'UNSPECIFIED', ('UNSPECIFIED'), ('UNSPECIFIED'), ('UNSPECIFIED') ) ;
#110 = ORIENTED_EDGE ( 'NONE', *, *, #142, .F. ) ;
#111 = ORIENTED_EDGE ( 'NONE', *, *, #34, .F. ) ;
#112 = DIRECTION ( 'NONE',  ( -0.0000000000000000000, -0.0000000000000000000, -1.000000000000000000 ) ) ;
#113 = CARTESIAN_POINT ( 'NONE',  ( -9.550000000000000700, 0.0000000000000000000, 3.174999999999999800 ) ) ;
#114 = DIRECTION ( 'NONE',  ( 1.000000000000000000, 0.0000000000000000000, 0.0000000000000000000 ) ) ;
#115 = LINE ( 'NONE', #133, #151 ) ;
#116 = DIRECTION ( 'NONE',  ( 0.0000000000000000000, 0.0000000000000000000, 1.000000000000000000 ) ) ;
#117 = PERSON_AND_ORGANIZATION_ROLE ( 'creator' ) ;
#118 = APPROVAL_ROLE ( '' ) ;
#119 = PERSON_AND_ORGANIZATION_ROLE ( 'creator' ) ;
#120 = EDGE_LOOP ( 'NONE', ( #26, #111 ) ) ;
#121 = PERSON_AND_ORGANIZATION ( #109, #162 ) ;
#122 = PRODUCT ( 'Web Model 38911_39003', 'Web Model 38911_39003', '', ( #79 ) ) ;
#123 = CYLINDRICAL_SURFACE ( 'NONE', #146, 9.550000000000000700 ) ;
#124 = CALENDAR_DATE ( 2018, 18, 10 ) ;
#125 = ADVANCED_FACE ( 'NONE', ( #40 ), #95, .T. ) ;
#126 = VERTEX_POINT ( 'NONE', #113 ) ;
#127 = DIRECTION ( 'NONE',  ( 0.0000000000000000000, 0.0000000000000000000, 1.000000000000000000 ) ) ;
#128 = CARTESIAN_POINT ( 'NONE',  ( 9.550000000000000700, 1.169537693185722600E-015, -3.174999999999999800 ) ) ;
#129 = PERSON_AND_ORGANIZATION ( #109, #162 ) ;
#130 = AXIS2_PLACEMENT_3D ( 'NONE', #137, #116, #29 ) ;
#131 = ORIENTED_EDGE ( 'NONE', *, *, #91, .F. ) ;
#132 = CARTESIAN_POINT ( 'NONE',  ( 0.0000000000000000000, 0.0000000000000000000, 3.174999999999999800 ) ) ;
#133 = CARTESIAN_POINT ( 'NONE',  ( 9.550000000000000700, 1.169537693185722600E-015, 3.174999999999999800 ) ) ;
#134 = CARTESIAN_POINT ( 'NONE',  ( 0.0000000000000000000, 0.0000000000000000000, 0.0000000000000000000 ) ) ;
#135 = PERSON_AND_ORGANIZATION ( #109, #162 ) ;
#136 = ORIENTED_EDGE ( 'NONE', *, *, #34, .T. ) ;
#137 = CARTESIAN_POINT ( 'NONE',  ( 0.0000000000000000000, 0.0000000000000000000, -3.174999999999999800 ) ) ;
#138 =( NAMED_UNIT ( * ) PLANE_ANGLE_UNIT ( ) SI_UNIT ( $, .RADIAN. ) );
#139 = EDGE_CURVE ( 'NONE', #64, #93, #115, .T. ) ;
#140 = APPLICATION_CONTEXT ( 'configuration controlled 3d designs of mechanical parts and assemblies' ) ;
#141 = LOCAL_TIME ( 15, 48, 18.00000000000000000, #70 ) ;
#142 = EDGE_CURVE ( 'NONE', #126, #163, #9, .T. ) ;
#143 = CALENDAR_DATE ( 2018, 18, 10 ) ;
#144 = PERSON_AND_ORGANIZATION ( #109, #162 ) ;
#145 = CIRCLE ( 'NONE', #53, 9.550000000000000700 ) ;
#146 = AXIS2_PLACEMENT_3D ( 'NONE', #100, #112, #66 ) ;
#147 = PERSON_AND_ORGANIZATION ( #109, #162 ) ;
#148 = ORIENTED_EDGE ( 'NONE', *, *, #36, .F. ) ;
#149 = CARTESIAN_POINT ( 'NONE',  ( 0.0000000000000000000, 0.0000000000000000000, 3.174999999999999800 ) ) ;
#150 = FACE_OUTER_BOUND ( 'NONE', #120, .T. ) ;
#151 = VECTOR ( 'NONE', #153, 1000.000000000000000 ) ;
#152 = CARTESIAN_POINT ( 'NONE',  ( -9.550000000000000700, 0.0000000000000000000, 3.174999999999999800 ) ) ;
#153 = DIRECTION ( 'NONE',  ( -0.0000000000000000000, -0.0000000000000000000, -1.000000000000000000 ) ) ;
#154 = PERSON_AND_ORGANIZATION_ROLE ( 'classification_officer' ) ;
#155 = CIRCLE ( 'NONE', #31, 9.550000000000000700 ) ;
#156 = LOCAL_TIME ( 15, 48, 18.00000000000000000, #84 ) ;
#157 = CALENDAR_DATE ( 2018, 18, 10 ) ;
#158 = ORIENTED_EDGE ( 'NONE', *, *, #139, .F. ) ;
#159 = CC_DESIGN_PERSON_AND_ORGANIZATION_ASSIGNMENT ( #129, #59, ( #67 ) ) ;
#160 = CC_DESIGN_SECURITY_CLASSIFICATION ( #172, ( #67 ) ) ;
#161 = DATE_AND_TIME ( #157, #10 ) ;
#162 = ORGANIZATION ( 'UNSPECIFIED', 'UNSPECIFIED', '' ) ;
#163 = VERTEX_POINT ( 'NONE', #18 ) ;
#164 = DIRECTION ( 'NONE',  ( 0.0000000000000000000, 0.0000000000000000000, 1.000000000000000000 ) ) ;
#165 = ADVANCED_FACE ( 'NONE', ( #150 ), #30, .F. ) ;
#166 = PLANE ( 'NONE',  #35 ) ;
#167 = DIRECTION ( 'NONE',  ( 0.0000000000000000000, 0.0000000000000000000, 1.000000000000000000 ) ) ;
#168 = DIRECTION ( 'NONE',  ( 0.0000000000000000000, 0.0000000000000000000, 1.000000000000000000 ) ) ;
#169 = APPROVAL_PERSON_ORGANIZATION ( #20, #96, #6 ) ;
#170 = DATE_TIME_ROLE ( 'creation_date' ) ;
#171 = DATE_TIME_ROLE ( 'classification_date' ) ;
#172 = SECURITY_CLASSIFICATION ( '', '', #90 ) ;
#173 = FACE_OUTER_BOUND ( 'NONE', #83, .T. ) ;
#174 = CC_DESIGN_DATE_AND_TIME_ASSIGNMENT ( #37, #171, ( #172 ) ) ;
#175 = SHAPE_DEFINITION_REPRESENTATION ( #76, #97 ) ;
ENDSEC;
END-ISO-10303-21;
