ISO-10303-21;
HEADER;
FILE_DESCRIPTION (( 'STEP AP203' ),
    '1' );
FILE_NAME ('Web Model 18362_18362.step',
    '2021-06-28T19:44:33',
    ( '' ),
    ( '' ),
    'SwSTEP 2.0',
    'SolidWorks 2018',
    '' );
FILE_SCHEMA (( 'CONFIG_CONTROL_DESIGN' ));
ENDSEC;

DATA;
#1 = PERSON_AND_ORGANIZATION ( #114, #64 ) ;
#2 = FACE_OUTER_BOUND ( 'NONE', #21, .T. ) ;
#3 = LOCAL_TIME ( 15, 44, 33.00000000000000000, #29 ) ;
#4 = CARTESIAN_POINT ( 'NONE',  ( -0.5000000000000001110, 0.000000000000000000, 0.1181102362204724532 ) ) ;
#5 = PERSON_AND_ORGANIZATION ( #114, #64 ) ;
#6 = VECTOR ( 'NONE', #130, 39.37007874015748143 ) ;
#7 = DIRECTION ( 'NONE',  ( 0.000000000000000000, 0.000000000000000000, 1.000000000000000000 ) ) ;
#8 = APPROVAL_DATE_TIME ( #15, #101 ) ;
#9 = EDGE_LOOP ( 'NONE', ( #123, #13, #38, #24 ) ) ;
#10 = CC_DESIGN_APPROVAL ( #137, ( #124 ) ) ;
#11 = APPROVAL_STATUS ( 'not_yet_approved' ) ;
#12 = ADVANCED_FACE ( 'NONE', ( #129 ), #148, .T. ) ;
#13 = ORIENTED_EDGE ( 'NONE', *, *, #167, .F. ) ;
#14 = PLANE ( 'NONE',  #161 ) ;
#15 = DATE_AND_TIME ( #36, #3 ) ;
#16 = EDGE_LOOP ( 'NONE', ( #166, #154, #48, #59 ) ) ;
#17 = CARTESIAN_POINT ( 'NONE',  ( 0.000000000000000000, 0.000000000000000000, 0.000000000000000000 ) ) ;
#18 = CARTESIAN_POINT ( 'NONE',  ( 0.000000000000000000, 0.000000000000000000, 0.1181102362204724532 ) ) ;
#19 = SHAPE_DEFINITION_REPRESENTATION ( #71, #60 ) ;
#20 = CC_DESIGN_PERSON_AND_ORGANIZATION_ASSIGNMENT ( #96, #127, ( #124 ) ) ;
#21 = EDGE_LOOP ( 'NONE', ( #94, #82 ) ) ;
#22 = CC_DESIGN_PERSON_AND_ORGANIZATION_ASSIGNMENT ( #58, #27, ( #106 ) ) ;
#23 = LOCAL_TIME ( 15, 44, 33.00000000000000000, #93 ) ;
#24 = ORIENTED_EDGE ( 'NONE', *, *, #105, .T. ) ;
#25 = APPROVAL_STATUS ( 'not_yet_approved' ) ;
#26 = ADVANCED_FACE ( 'NONE', ( #159 ), #80, .T. ) ;
#27 = PERSON_AND_ORGANIZATION_ROLE ( 'classification_officer' ) ;
#28 = APPROVAL_ROLE ( '' ) ;
#29 = COORDINATED_UNIVERSAL_TIME_OFFSET ( 5, 0, .BEHIND. ) ;
#30 = DESIGN_CONTEXT ( 'detailed design', #110, 'design' ) ;
#31 = DIRECTION ( 'NONE',  ( 1.000000000000000000, 0.000000000000000000, 0.000000000000000000 ) ) ;
#32 = CARTESIAN_POINT ( 'NONE',  ( 0.000000000000000000, 0.000000000000000000, 0.1181102362204724532 ) ) ;
#33 = LOCAL_TIME ( 15, 44, 33.00000000000000000, #103 ) ;
#34 =( LENGTH_UNIT ( ) NAMED_UNIT ( * ) SI_UNIT ( $, .METRE. ) );
#35 =( CONVERSION_BASED_UNIT ( 'INCH', #150 ) LENGTH_UNIT ( ) NAMED_UNIT ( #126 ) );
#36 = CALENDAR_DATE ( 2021, 28, 6 ) ;
#37 = LOCAL_TIME ( 15, 44, 33.00000000000000000, #142 ) ;
#38 = ORIENTED_EDGE ( 'NONE', *, *, #63, .T. ) ;
#39 =( NAMED_UNIT ( * ) SI_UNIT ( $, .STERADIAN. ) SOLID_ANGLE_UNIT ( ) );
#40 = AXIS2_PLACEMENT_3D ( 'NONE', #45, #88, #97 ) ;
#41 = PERSON_AND_ORGANIZATION ( #114, #64 ) ;
#42 = LINE ( 'NONE', #172, #6 ) ;
#43 = CC_DESIGN_PERSON_AND_ORGANIZATION_ASSIGNMENT ( #131, #83, ( #84 ) ) ;
#44 = CC_DESIGN_SECURITY_CLASSIFICATION ( #106, ( #124 ) ) ;
#45 = CARTESIAN_POINT ( 'NONE',  ( 0.000000000000000000, 0.000000000000000000, 0.1181102362204724532 ) ) ;
#46 = CARTESIAN_POINT ( 'NONE',  ( -0.5000000000000001110, 0.000000000000000000, 0.000000000000000000 ) ) ;
#47 = DIRECTION ( 'NONE',  ( 1.000000000000000000, 0.000000000000000000, 0.000000000000000000 ) ) ;
#48 = ORIENTED_EDGE ( 'NONE', *, *, #98, .T. ) ;
#49 = AXIS2_PLACEMENT_3D ( 'NONE', #141, #73, #152 ) ;
#50 = AXIS2_PLACEMENT_3D ( 'NONE', #86, #56, #174 ) ;
#51 = CALENDAR_DATE ( 2021, 28, 6 ) ;
#52 = DIRECTION ( 'NONE',  ( 1.000000000000000000, 0.000000000000000000, 0.000000000000000000 ) ) ;
#53 = DATE_TIME_ROLE ( 'classification_date' ) ;
#54 = CIRCLE ( 'NONE', #87, 0.5000000000000001110 ) ;
#55 = ORIENTED_EDGE ( 'NONE', *, *, #171, .T. ) ;
#56 = DIRECTION ( 'NONE',  ( 0.000000000000000000, 0.000000000000000000, 1.000000000000000000 ) ) ;
#57 = DIRECTION ( 'NONE',  ( 1.000000000000000000, 0.000000000000000000, -0.000000000000000000 ) ) ;
#58 = PERSON_AND_ORGANIZATION ( #114, #64 ) ;
#59 = ORIENTED_EDGE ( 'NONE', *, *, #63, .F. ) ;
#60 = ADVANCED_BREP_SHAPE_REPRESENTATION ( 'Web Model 18362_18362', ( #151, #108 ), #135 ) ;
#61 = AXIS2_PLACEMENT_3D ( 'NONE', #17, #155, #47 ) ;
#62 = CALENDAR_DATE ( 2021, 28, 6 ) ;
#63 = EDGE_CURVE ( 'NONE', #132, #128, #158, .T. ) ;
#64 = ORGANIZATION ( 'UNSPECIFIED', 'UNSPECIFIED', '' ) ;
#65 = ORIENTED_EDGE ( 'NONE', *, *, #167, .T. ) ;
#66 = SECURITY_CLASSIFICATION_LEVEL ( 'unclassified' ) ;
#67 = DATE_AND_TIME ( #173, #117 ) ;
#68 = DATE_TIME_ROLE ( 'creation_date' ) ;
#69 = APPROVAL_PERSON_ORGANIZATION ( #1, #101, #163 ) ;
#70 = EDGE_CURVE ( 'NONE', #112, #85, #42, .T. ) ;
#71 = PRODUCT_DEFINITION_SHAPE ( 'NONE', 'NONE',  #175 ) ;
#72 = DATE_AND_TIME ( #176, #33 ) ;
#73 = DIRECTION ( 'NONE',  ( 0.000000000000000000, 0.000000000000000000, 1.000000000000000000 ) ) ;
#74 = APPROVAL_PERSON_ORGANIZATION ( #41, #137, #164 ) ;
#75 = DIRECTION ( 'NONE',  ( -0.000000000000000000, -0.000000000000000000, -1.000000000000000000 ) ) ;
#76 = CC_DESIGN_DATE_AND_TIME_ASSIGNMENT ( #139, #53, ( #106 ) ) ;
#77 = PRODUCT_RELATED_PRODUCT_CATEGORY ( 'detail', '', ( #84 ) ) ;
#78 = VECTOR ( 'NONE', #75, 39.37007874015748143 ) ;
#79 = AXIS2_PLACEMENT_3D ( 'NONE', #115, #169, #31 ) ;
#80 = CYLINDRICAL_SURFACE ( 'NONE', #40, 0.5000000000000001110 ) ;
#81 = PERSON_AND_ORGANIZATION_ROLE ( 'creator' ) ;
#82 = ORIENTED_EDGE ( 'NONE', *, *, #98, .F. ) ;
#83 = PERSON_AND_ORGANIZATION_ROLE ( 'design_owner' ) ;
#84 = PRODUCT ( 'Web Model 18362_18362', 'Web Model 18362_18362', '', ( #95 ) ) ;
#85 = VERTEX_POINT ( 'NONE', #99 ) ;
#86 = CARTESIAN_POINT ( 'NONE',  ( 0.000000000000000000, 0.000000000000000000, 0.000000000000000000 ) ) ;
#87 = AXIS2_PLACEMENT_3D ( 'NONE', #18, #7, #119 ) ;
#88 = DIRECTION ( 'NONE',  ( -0.000000000000000000, -0.000000000000000000, -1.000000000000000000 ) ) ;
#89 = EDGE_LOOP ( 'NONE', ( #65, #55 ) ) ;
#90 = CIRCLE ( 'NONE', #61, 0.5000000000000001110 ) ;
#91 = APPROVAL_STATUS ( 'not_yet_approved' ) ;
#92 = ADVANCED_FACE ( 'NONE', ( #2 ), #14, .F. ) ;
#93 = COORDINATED_UNIVERSAL_TIME_OFFSET ( 5, 0, .BEHIND. ) ;
#94 = ORIENTED_EDGE ( 'NONE', *, *, #105, .F. ) ;
#95 = MECHANICAL_CONTEXT ( 'NONE', #146, 'mechanical' ) ;
#96 = PERSON_AND_ORGANIZATION ( #114, #64 ) ;
#97 = DIRECTION ( 'NONE',  ( -1.000000000000000000, 0.000000000000000000, 0.000000000000000000 ) ) ;
#98 = EDGE_CURVE ( 'NONE', #85, #128, #125, .T. ) ;
#99 = CARTESIAN_POINT ( 'NONE',  ( 0.5000000000000001110, 6.123233995736767268E-17, 0.000000000000000000 ) ) ;
#100 = PLANE ( 'NONE',  #49 ) ;
#101 = APPROVAL ( #25, 'UNSPECIFIED' ) ;
#102 = CC_DESIGN_APPROVAL ( #101, ( #175 ) ) ;
#103 = COORDINATED_UNIVERSAL_TIME_OFFSET ( 5, 0, .BEHIND. ) ;
#104 = APPLICATION_PROTOCOL_DEFINITION ( 'international standard', 'config_control_design', 1994, #146 ) ;
#105 = EDGE_CURVE ( 'NONE', #128, #85, #90, .T. ) ;
#106 = SECURITY_CLASSIFICATION ( '', '', #66 ) ;
#107 = PERSON_AND_ORGANIZATION ( #114, #64 ) ;
#108 = AXIS2_PLACEMENT_3D ( 'NONE', #149, #136, #52 ) ;
#109 = APPLICATION_PROTOCOL_DEFINITION ( 'international standard', 'config_control_design', 1994, #110 ) ;
#110 = APPLICATION_CONTEXT ( 'configuration controlled 3d designs of mechanical parts and assemblies' ) ;
#111 = COORDINATED_UNIVERSAL_TIME_OFFSET ( 5, 0, .BEHIND. ) ;
#112 = VERTEX_POINT ( 'NONE', #140 ) ;
#113 = CC_DESIGN_APPROVAL ( #162, ( #106 ) ) ;
#114 = PERSON ( 'UNSPECIFIED', 'UNSPECIFIED', 'UNSPECIFIED', ('UNSPECIFIED'), ('UNSPECIFIED'), ('UNSPECIFIED') ) ;
#115 = CARTESIAN_POINT ( 'NONE',  ( 0.000000000000000000, 0.000000000000000000, 0.1181102362204724532 ) ) ;
#116 = UNCERTAINTY_MEASURE_WITH_UNIT (LENGTH_MEASURE( 1.000000000000000082E-05 ), #35, 'distance_accuracy_value', 'NONE');
#117 = LOCAL_TIME ( 15, 44, 33.00000000000000000, #111 ) ;
#118 = FACE_OUTER_BOUND ( 'NONE', #89, .T. ) ;
#119 = DIRECTION ( 'NONE',  ( 1.000000000000000000, 0.000000000000000000, 0.000000000000000000 ) ) ;
#120 = DIRECTION ( 'NONE',  ( -1.000000000000000000, 0.000000000000000000, 0.000000000000000000 ) ) ;
#121 = DIRECTION ( 'NONE',  ( 0.000000000000000000, 0.000000000000000000, 1.000000000000000000 ) ) ;
#122 = CLOSED_SHELL ( 'NONE', ( #26, #12, #145, #92 ) ) ;
#123 = ORIENTED_EDGE ( 'NONE', *, *, #70, .F. ) ;
#124 = PRODUCT_DEFINITION_FORMATION_WITH_SPECIFIED_SOURCE ( 'ANY', '', #84, .NOT_KNOWN. ) ;
#125 = CIRCLE ( 'NONE', #50, 0.5000000000000001110 ) ;
#126 = DIMENSIONAL_EXPONENTS ( 1.000000000000000000, 0.000000000000000000, 0.000000000000000000, 0.000000000000000000, 0.000000000000000000, 0.000000000000000000, 0.000000000000000000 ) ;
#127 = PERSON_AND_ORGANIZATION_ROLE ( 'creator' ) ;
#128 = VERTEX_POINT ( 'NONE', #46 ) ;
#129 = FACE_OUTER_BOUND ( 'NONE', #9, .T. ) ;
#130 = DIRECTION ( 'NONE',  ( -0.000000000000000000, -0.000000000000000000, -1.000000000000000000 ) ) ;
#131 = PERSON_AND_ORGANIZATION ( #114, #64 ) ;
#132 = VERTEX_POINT ( 'NONE', #156 ) ;
#133 = CC_DESIGN_PERSON_AND_ORGANIZATION_ASSIGNMENT ( #107, #81, ( #175 ) ) ;
#134 = PERSON_AND_ORGANIZATION_ROLE ( 'design_supplier' ) ;
#135 =( GEOMETRIC_REPRESENTATION_CONTEXT ( 3 ) GLOBAL_UNCERTAINTY_ASSIGNED_CONTEXT ( ( #116 ) ) GLOBAL_UNIT_ASSIGNED_CONTEXT ( ( #35, #177, #39 ) ) REPRESENTATION_CONTEXT ( 'NONE', 'WORKASPACE' ) );
#136 = DIRECTION ( 'NONE',  ( 0.000000000000000000, 0.000000000000000000, 1.000000000000000000 ) ) ;
#137 = APPROVAL ( #91, 'UNSPECIFIED' ) ;
#138 = PERSON_AND_ORGANIZATION ( #114, #64 ) ;
#139 = DATE_AND_TIME ( #51, #23 ) ;
#140 = CARTESIAN_POINT ( 'NONE',  ( 0.5000000000000001110, 6.123233995736767268E-17, 0.1181102362204724532 ) ) ;
#141 = CARTESIAN_POINT ( 'NONE',  ( 0.000000000000000000, 0.000000000000000000, 0.1181102362204724532 ) ) ;
#142 = COORDINATED_UNIVERSAL_TIME_OFFSET ( 5, 0, .BEHIND. ) ;
#143 = APPROVAL_PERSON_ORGANIZATION ( #5, #162, #28 ) ;
#144 = CIRCLE ( 'NONE', #79, 0.5000000000000001110 ) ;
#145 = ADVANCED_FACE ( 'NONE', ( #118 ), #100, .T. ) ;
#146 = APPLICATION_CONTEXT ( 'configuration controlled 3d designs of mechanical parts and assemblies' ) ;
#147 = AXIS2_PLACEMENT_3D ( 'NONE', #32, #170, #120 ) ;
#148 = CYLINDRICAL_SURFACE ( 'NONE', #147, 0.5000000000000001110 ) ;
#149 = CARTESIAN_POINT ( 'NONE',  ( 0.000000000000000000, 0.000000000000000000, 0.000000000000000000 ) ) ;
#150 = LENGTH_MEASURE_WITH_UNIT ( LENGTH_MEASURE( 0.02539999999999999897 ), #34 );
#151 = MANIFOLD_SOLID_BREP ( 'Boss-Extrude1', #122 ) ;
#152 = DIRECTION ( 'NONE',  ( 1.000000000000000000, 0.000000000000000000, -0.000000000000000000 ) ) ;
#153 = CARTESIAN_POINT ( 'NONE',  ( 0.000000000000000000, 0.000000000000000000, 0.000000000000000000 ) ) ;
#154 = ORIENTED_EDGE ( 'NONE', *, *, #70, .T. ) ;
#155 = DIRECTION ( 'NONE',  ( 0.000000000000000000, 0.000000000000000000, 1.000000000000000000 ) ) ;
#156 = CARTESIAN_POINT ( 'NONE',  ( -0.5000000000000001110, 0.000000000000000000, 0.1181102362204724532 ) ) ;
#157 = CC_DESIGN_PERSON_AND_ORGANIZATION_ASSIGNMENT ( #138, #134, ( #124 ) ) ;
#158 = LINE ( 'NONE', #4, #78 ) ;
#159 = FACE_OUTER_BOUND ( 'NONE', #16, .T. ) ;
#160 = CC_DESIGN_DATE_AND_TIME_ASSIGNMENT ( #67, #68, ( #175 ) ) ;
#161 = AXIS2_PLACEMENT_3D ( 'NONE', #153, #121, #57 ) ;
#162 = APPROVAL ( #11, 'UNSPECIFIED' ) ;
#163 = APPROVAL_ROLE ( '' ) ;
#164 = APPROVAL_ROLE ( '' ) ;
#165 = APPROVAL_DATE_TIME ( #72, #162 ) ;
#166 = ORIENTED_EDGE ( 'NONE', *, *, #171, .F. ) ;
#167 = EDGE_CURVE ( 'NONE', #132, #112, #144, .T. ) ;
#168 = APPROVAL_DATE_TIME ( #178, #137 ) ;
#169 = DIRECTION ( 'NONE',  ( 0.000000000000000000, 0.000000000000000000, 1.000000000000000000 ) ) ;
#170 = DIRECTION ( 'NONE',  ( -0.000000000000000000, -0.000000000000000000, -1.000000000000000000 ) ) ;
#171 = EDGE_CURVE ( 'NONE', #112, #132, #54, .T. ) ;
#172 = CARTESIAN_POINT ( 'NONE',  ( 0.5000000000000001110, 6.123233995736767268E-17, 0.1181102362204724532 ) ) ;
#173 = CALENDAR_DATE ( 2021, 28, 6 ) ;
#174 = DIRECTION ( 'NONE',  ( 1.000000000000000000, 0.000000000000000000, 0.000000000000000000 ) ) ;
#175 = PRODUCT_DEFINITION ( 'UNKNOWN', '', #124, #30 ) ;
#176 = CALENDAR_DATE ( 2021, 28, 6 ) ;
#177 =( NAMED_UNIT ( * ) PLANE_ANGLE_UNIT ( ) SI_UNIT ( $, .RADIAN. ) );
#178 = DATE_AND_TIME ( #62, #37 ) ;
ENDSEC;
END-ISO-10303-21;
