ISO-10303-21;
HEADER;
FILE_DESCRIPTION (( 'STEP AP203' ),
    '1' );
FILE_NAME ('ISP Wedged Parts_16811.step',
    '2021-01-08T17:56:15',
    ( '' ),
    ( '' ),
    'SwSTEP 2.0',
    'SolidWorks 2018',
    '' );
FILE_SCHEMA (( 'CONFIG_CONTROL_DESIGN' ));
ENDSEC;

DATA;
#1 = APPROVAL_STATUS ( 'not_yet_approved' ) ;
#2 = ORIENTED_EDGE ( 'NONE', *, *, #87, .F. ) ;
#3 = AXIS2_PLACEMENT_3D ( 'NONE', #151, #121, #120 ) ;
#4 = DIRECTION ( 'NONE',  ( 1.000000000000000000, 0.0000000000000000000, 0.0000000000000000000 ) ) ;
#5 = EDGE_LOOP ( 'NONE', ( #36, #2 ) ) ;
#6 = COORDINATED_UNIVERSAL_TIME_OFFSET ( 5, 0, .BEHIND. ) ;
#7 = FACE_OUTER_BOUND ( 'NONE', #71, .T. ) ;
#8 = CYLINDRICAL_SURFACE ( 'NONE', #3, 25.39999999999999858 ) ;
#9 = PRODUCT ( 'ISP Wedged Parts_16811', 'ISP Wedged Parts_16811', '', ( #18 ) ) ;
#10 = APPROVAL_DATE_TIME ( #42, #74 ) ;
#11 = CARTESIAN_POINT ( 'NONE',  ( 0.0000000000000000000, 0.0000000000000000000, 6.000000000000000000 ) ) ;
#12 = ORIENTED_EDGE ( 'NONE', *, *, #80, .T. ) ;
#13 = APPROVAL_PERSON_ORGANIZATION ( #108, #61, #168 ) ;
#14 = APPROVAL_ROLE ( '' ) ;
#15 = PERSON_AND_ORGANIZATION_ROLE ( 'design_owner' ) ;
#16 = LINE ( 'NONE', #70, #45 ) ;
#17 = ADVANCED_FACE ( 'NONE', ( #149 ), #75, .T. ) ;
#18 = MECHANICAL_CONTEXT ( 'NONE', #67, 'mechanical' ) ;
#19 = CARTESIAN_POINT ( 'NONE',  ( -25.39999999999999858, 0.0000000000000000000, 0.2216624418850832723 ) ) ;
#20 = EDGE_LOOP ( 'NONE', ( #93, #22, #156, #124 ) ) ;
#21 = VERTEX_POINT ( 'NONE', #95 ) ;
#22 = ORIENTED_EDGE ( 'NONE', *, *, #169, .T. ) ;
#23 = EDGE_CURVE ( 'NONE', #134, #90, #132, .T. ) ;
#24 = CC_DESIGN_PERSON_AND_ORGANIZATION_ASSIGNMENT ( #69, #138, ( #112 ) ) ;
#25 = ADVANCED_FACE ( 'NONE', ( #7 ), #8, .T. ) ;
#26 = DATE_TIME_ROLE ( 'classification_date' ) ;
#27 = CARTESIAN_POINT ( 'NONE',  ( 25.39999999999999858, 3.110602869834276865E-15, 0.2216624418850832723 ) ) ;
#28 = SHAPE_DEFINITION_REPRESENTATION ( #116, #59 ) ;
#29 = CALENDAR_DATE ( 2021, 8, 1 ) ;
#30 = AXIS2_PLACEMENT_3D ( 'NONE', #11, #62, #123 ) ;
#31 = FACE_OUTER_BOUND ( 'NONE', #5, .T. ) ;
#32 = PERSON_AND_ORGANIZATION ( #148, #35 ) ;
#33 = PLANE ( 'NONE',  #89 ) ;
#34 = PERSON_AND_ORGANIZATION ( #148, #35 ) ;
#35 = ORGANIZATION ( 'UNSPECIFIED', 'UNSPECIFIED', '' ) ;
#36 = ORIENTED_EDGE ( 'NONE', *, *, #23, .F. ) ;
#37 = APPROVAL_STATUS ( 'not_yet_approved' ) ;
#38 = COORDINATED_UNIVERSAL_TIME_OFFSET ( 5, 0, .BEHIND. ) ;
#39 = APPLICATION_PROTOCOL_DEFINITION ( 'international standard', 'config_control_design', 1994, #67 ) ;
#40 = ORIENTED_EDGE ( 'NONE', *, *, #113, .T. ) ;
#41 = DIRECTION ( 'NONE',  ( 0.0000000000000000000, 0.0000000000000000000, 1.000000000000000000 ) ) ;
#42 = DATE_AND_TIME ( #125, #82 ) ;
#43 = CARTESIAN_POINT ( 'NONE',  ( 25.39999999999999858, 3.110602869834276865E-15, 6.000000000000000000 ) ) ;
#44 = CC_DESIGN_PERSON_AND_ORGANIZATION_ASSIGNMENT ( #115, #107, ( #155 ) ) ;
#45 = VECTOR ( 'NONE', #85, 1000.000000000000000 ) ;
#46 = CALENDAR_DATE ( 2021, 8, 1 ) ;
#47 = CARTESIAN_POINT ( 'NONE',  ( 0.0000000000000000000, 0.0000000000000000000, 6.000000000000000000 ) ) ;
#48 = ORIENTED_EDGE ( 'NONE', *, *, #137, .F. ) ;
#49 = DIRECTION ( 'NONE',  ( 1.000000000000000000, 0.0000000000000000000, -0.0000000000000000000 ) ) ;
#50 = DIRECTION ( 'NONE',  ( 0.0000000000000000000, 0.0000000000000000000, 1.000000000000000000 ) ) ;
#51 = SECURITY_CLASSIFICATION_LEVEL ( 'unclassified' ) ;
#52 = CARTESIAN_POINT ( 'NONE',  ( 25.39999999999999858, -50.79999999999999716, 0.6649873256552515377 ) ) ;
#53 = CC_DESIGN_DATE_AND_TIME_ASSIGNMENT ( #91, #68, ( #155 ) ) ;
#54 = ORIENTED_EDGE ( 'NONE', *, *, #137, .T. ) ;
#55 = APPROVAL_STATUS ( 'not_yet_approved' ) ;
#56 = EDGE_LOOP ( 'NONE', ( #54, #12 ) ) ;
#57 =( NAMED_UNIT ( * ) SI_UNIT ( $, .STERADIAN. ) SOLID_ANGLE_UNIT ( ) );
#58 = PRODUCT_DEFINITION_FORMATION_WITH_SPECIFIED_SOURCE ( 'ANY', '', #9, .NOT_KNOWN. ) ;
#59 = ADVANCED_BREP_SHAPE_REPRESENTATION ( 'ISP Wedged Parts_16811', ( #122, #135 ), #94 ) ;
#60 = APPROVAL_DATE_TIME ( #101, #61 ) ;
#61 = APPROVAL ( #1, 'UNSPECIFIED' ) ;
#62 = DIRECTION ( 'NONE',  ( 0.0000000000000000000, 0.0000000000000000000, 1.000000000000000000 ) ) ;
#63 = VERTEX_POINT ( 'NONE', #118 ) ;
#64 = PERSON_AND_ORGANIZATION_ROLE ( 'design_supplier' ) ;
#65 = DATE_AND_TIME ( #164, #103 ) ;
#66 = APPROVAL_ROLE ( '' ) ;
#67 = APPLICATION_CONTEXT ( 'configuration controlled 3d designs of mechanical parts and assemblies' ) ;
#68 = DATE_TIME_ROLE ( 'creation_date' ) ;
#69 = PERSON_AND_ORGANIZATION ( #148, #35 ) ;
#70 = CARTESIAN_POINT ( 'NONE',  ( -25.39999999999999858, 0.0000000000000000000, 6.000000000000000000 ) ) ;
#71 = EDGE_LOOP ( 'NONE', ( #154, #48, #40, #129 ) ) ;
#72 = CC_DESIGN_SECURITY_CLASSIFICATION ( #112, ( #58 ) ) ;
#73 = DIRECTION ( 'NONE',  ( -0.0000000000000000000, -0.0000000000000000000, -1.000000000000000000 ) ) ;
#74 = APPROVAL ( #55, 'UNSPECIFIED' ) ;
#75 = CYLINDRICAL_SURFACE ( 'NONE', #147, 25.39999999999999858 ) ;
#76 = PRODUCT_RELATED_PRODUCT_CATEGORY ( 'detail', '', ( #9 ) ) ;
#77 = AXIS2_PLACEMENT_3D ( 'NONE', #146, #41, #4 ) ;
#78 = PERSON_AND_ORGANIZATION ( #148, #35 ) ;
#79 = CIRCLE ( 'NONE', #77, 25.39999999999999858 ) ;
#80 = EDGE_CURVE ( 'NONE', #21, #63, #83, .T. ) ;
#81 = ADVANCED_FACE ( 'NONE', ( #160 ), #33, .T. ) ;
#82 = LOCAL_TIME ( 12, 56, 15.00000000000000000, #38 ) ;
#83 = CIRCLE ( 'NONE', #30, 25.39999999999999858 ) ;
#84 = UNCERTAINTY_MEASURE_WITH_UNIT (LENGTH_MEASURE( 1.000000000000000082E-05 ), #145, 'distance_accuracy_value', 'NONE');
#85 = DIRECTION ( 'NONE',  ( -0.0000000000000000000, -0.0000000000000000000, -1.000000000000000000 ) ) ;
#86 = APPROVAL_DATE_TIME ( #65, #163 ) ;
#87 = EDGE_CURVE ( 'NONE', #90, #134, #96, .T. ) ;
#88 = LOCAL_TIME ( 12, 56, 15.00000000000000000, #6 ) ;
#89 = AXIS2_PLACEMENT_3D ( 'NONE', #136, #104, #49 ) ;
#90 = VERTEX_POINT ( 'NONE', #143 ) ;
#91 = DATE_AND_TIME ( #99, #139 ) ;
#92 = VECTOR ( 'NONE', #73, 1000.000000000000000 ) ;
#93 = ORIENTED_EDGE ( 'NONE', *, *, #80, .F. ) ;
#94 =( GEOMETRIC_REPRESENTATION_CONTEXT ( 3 ) GLOBAL_UNCERTAINTY_ASSIGNED_CONTEXT ( ( #84 ) ) GLOBAL_UNIT_ASSIGNED_CONTEXT ( ( #145, #114, #57 ) ) REPRESENTATION_CONTEXT ( 'NONE', 'WORKASPACE' ) );
#95 = CARTESIAN_POINT ( 'NONE',  ( 25.39999999999999858, 3.110602869834276865E-15, 6.000000000000000000 ) ) ;
#96 =( BOUNDED_CURVE ( )  B_SPLINE_CURVE ( 3, ( #27, #128, #98, #19 ),
 .UNSPECIFIED., .F., .F. ) 
 B_SPLINE_CURVE_WITH_KNOTS ( ( 4, 4 ),
 ( 4.712388980384689674, 7.853981633974482790 ),
 .UNSPECIFIED. ) 
 CURVE ( )  GEOMETRIC_REPRESENTATION_ITEM ( )  RATIONAL_B_SPLINE_CURVE ( ( 1.000000000000000000, 0.3333333333333333703, 0.3333333333333333703, 1.000000000000000000 ) ) 
 REPRESENTATION_ITEM ( '' )  );
#97 = COORDINATED_UNIVERSAL_TIME_OFFSET ( 5, 0, .BEHIND. ) ;
#98 = CARTESIAN_POINT ( 'NONE',  ( -25.40000000000000924, 50.79999999999999716, -0.2216624418850848821 ) ) ;
#99 = CALENDAR_DATE ( 2021, 8, 1 ) ;
#100 = CC_DESIGN_APPROVAL ( #74, ( #58 ) ) ;
#101 = DATE_AND_TIME ( #29, #159 ) ;
#102 = APPROVAL_PERSON_ORGANIZATION ( #32, #163, #14 ) ;
#103 = LOCAL_TIME ( 12, 56, 15.00000000000000000, #131 ) ;
#104 = DIRECTION ( 'NONE',  ( 0.0000000000000000000, 0.0000000000000000000, 1.000000000000000000 ) ) ;
#105 = CARTESIAN_POINT ( 'NONE',  ( -25.40000000000000924, -50.79999999999999716, 0.6649873256552514267 ) ) ;
#106 = PERSON_AND_ORGANIZATION ( #148, #35 ) ;
#107 = PERSON_AND_ORGANIZATION_ROLE ( 'creator' ) ;
#108 = PERSON_AND_ORGANIZATION ( #148, #35 ) ;
#109 = PERSON_AND_ORGANIZATION_ROLE ( 'creator' ) ;
#110 = CC_DESIGN_PERSON_AND_ORGANIZATION_ASSIGNMENT ( #78, #109, ( #58 ) ) ;
#111 = CARTESIAN_POINT ( 'NONE',  ( -25.39999999999999858, -25.39999999999999858, 0.4433248837701682099 ) ) ;
#112 = SECURITY_CLASSIFICATION ( '', '', #51 ) ;
#113 = EDGE_CURVE ( 'NONE', #63, #134, #16, .T. ) ;
#114 =( NAMED_UNIT ( * ) PLANE_ANGLE_UNIT ( ) SI_UNIT ( $, .RADIAN. ) );
#115 = PERSON_AND_ORGANIZATION ( #148, #35 ) ;
#116 = PRODUCT_DEFINITION_SHAPE ( 'NONE', 'NONE',  #155 ) ;
#117 = DIRECTION ( 'NONE',  ( 1.000000000000000000, 0.0000000000000000000, 0.0000000000000000000 ) ) ;
#118 = CARTESIAN_POINT ( 'NONE',  ( -25.39999999999999858, 0.0000000000000000000, 6.000000000000000000 ) ) ;
#119 = PERSON_AND_ORGANIZATION ( #148, #35 ) ;
#120 = DIRECTION ( 'NONE',  ( -1.000000000000000000, 0.0000000000000000000, 0.0000000000000000000 ) ) ;
#121 = DIRECTION ( 'NONE',  ( -0.0000000000000000000, -0.0000000000000000000, -1.000000000000000000 ) ) ;
#122 = MANIFOLD_SOLID_BREP ( 'Cut-Extrude1', #166 ) ;
#123 = DIRECTION ( 'NONE',  ( 1.000000000000000000, 0.0000000000000000000, 0.0000000000000000000 ) ) ;
#124 = ORIENTED_EDGE ( 'NONE', *, *, #113, .F. ) ;
#125 = CALENDAR_DATE ( 2021, 8, 1 ) ;
#126 = ADVANCED_FACE ( 'NONE', ( #31 ), #141, .F. ) ;
#127 = DESIGN_CONTEXT ( 'detailed design', #140, 'design' ) ;
#128 = CARTESIAN_POINT ( 'NONE',  ( 25.40000000000001990, 50.79999999999999716, -0.2216624418850847988 ) ) ;
#129 = ORIENTED_EDGE ( 'NONE', *, *, #23, .T. ) ;
#130 = CARTESIAN_POINT ( 'NONE',  ( -25.39999999999999858, 0.0000000000000000000, 0.2216624418850832723 ) ) ;
#131 = COORDINATED_UNIVERSAL_TIME_OFFSET ( 5, 0, .BEHIND. ) ;
#132 =( BOUNDED_CURVE ( )  B_SPLINE_CURVE ( 3, ( #167, #105, #52, #150 ),
 .UNSPECIFIED., .F., .T. ) 
 B_SPLINE_CURVE_WITH_KNOTS ( ( 4, 4 ),
 ( 1.570796326794896558, 4.712388980384689674 ),
 .UNSPECIFIED. ) 
 CURVE ( )  GEOMETRIC_REPRESENTATION_ITEM ( )  RATIONAL_B_SPLINE_CURVE ( ( 1.000000000000000000, 0.3333333333333333703, 0.3333333333333333703, 1.000000000000000000 ) ) 
 REPRESENTATION_ITEM ( '' )  );
#133 = CC_DESIGN_APPROVAL ( #61, ( #112 ) ) ;
#134 = VERTEX_POINT ( 'NONE', #130 ) ;
#135 = AXIS2_PLACEMENT_3D ( 'NONE', #174, #50, #117 ) ;
#136 = CARTESIAN_POINT ( 'NONE',  ( 0.0000000000000000000, 0.0000000000000000000, 6.000000000000000000 ) ) ;
#137 = EDGE_CURVE ( 'NONE', #63, #21, #79, .T. ) ;
#138 = PERSON_AND_ORGANIZATION_ROLE ( 'classification_officer' ) ;
#139 = LOCAL_TIME ( 12, 56, 15.00000000000000000, #172 ) ;
#140 = APPLICATION_CONTEXT ( 'configuration controlled 3d designs of mechanical parts and assemblies' ) ;
#141 = PLANE ( 'NONE',  #158 ) ;
#142 = DATE_AND_TIME ( #46, #88 ) ;
#143 = CARTESIAN_POINT ( 'NONE',  ( 25.39999999999999858, 3.110602869834276865E-15, 0.2216624418850832723 ) ) ;
#144 = DIRECTION ( 'NONE',  ( 0.0000000000000000000, 0.008726535498366490978, 0.9999619230641714207 ) ) ;
#145 =( LENGTH_UNIT ( ) NAMED_UNIT ( * ) SI_UNIT ( .MILLI., .METRE. ) );
#146 = CARTESIAN_POINT ( 'NONE',  ( 0.0000000000000000000, 0.0000000000000000000, 6.000000000000000000 ) ) ;
#147 = AXIS2_PLACEMENT_3D ( 'NONE', #47, #165, #175 ) ;
#148 = PERSON ( 'UNSPECIFIED', 'UNSPECIFIED', 'UNSPECIFIED', ('UNSPECIFIED'), ('UNSPECIFIED'), ('UNSPECIFIED') ) ;
#149 = FACE_OUTER_BOUND ( 'NONE', #20, .T. ) ;
#150 = CARTESIAN_POINT ( 'NONE',  ( 25.39999999999999858, 3.110602869834276865E-15, 0.2216624418850832723 ) ) ;
#151 = CARTESIAN_POINT ( 'NONE',  ( 0.0000000000000000000, 0.0000000000000000000, 6.000000000000000000 ) ) ;
#152 = CC_DESIGN_DATE_AND_TIME_ASSIGNMENT ( #142, #26, ( #112 ) ) ;
#153 = APPLICATION_PROTOCOL_DEFINITION ( 'international standard', 'config_control_design', 1994, #140 ) ;
#154 = ORIENTED_EDGE ( 'NONE', *, *, #169, .F. ) ;
#155 = PRODUCT_DEFINITION ( 'UNKNOWN', '', #58, #127 ) ;
#156 = ORIENTED_EDGE ( 'NONE', *, *, #87, .T. ) ;
#157 = DIRECTION ( 'NONE',  ( 0.0000000000000000000, -0.9999619230641713097, 0.008726535498366489244 ) ) ;
#158 = AXIS2_PLACEMENT_3D ( 'NONE', #111, #144, #157 ) ;
#159 = LOCAL_TIME ( 12, 56, 15.00000000000000000, #97 ) ;
#160 = FACE_OUTER_BOUND ( 'NONE', #56, .T. ) ;
#161 = LINE ( 'NONE', #43, #92 ) ;
#162 = APPROVAL_PERSON_ORGANIZATION ( #34, #74, #66 ) ;
#163 = APPROVAL ( #37, 'UNSPECIFIED' ) ;
#164 = CALENDAR_DATE ( 2021, 8, 1 ) ;
#165 = DIRECTION ( 'NONE',  ( -0.0000000000000000000, -0.0000000000000000000, -1.000000000000000000 ) ) ;
#166 = CLOSED_SHELL ( 'NONE', ( #17, #25, #81, #126 ) ) ;
#167 = CARTESIAN_POINT ( 'NONE',  ( -25.39999999999999858, 0.0000000000000000000, 0.2216624418850832723 ) ) ;
#168 = APPROVAL_ROLE ( '' ) ;
#169 = EDGE_CURVE ( 'NONE', #21, #90, #161, .T. ) ;
#170 = CC_DESIGN_APPROVAL ( #163, ( #155 ) ) ;
#171 = CC_DESIGN_PERSON_AND_ORGANIZATION_ASSIGNMENT ( #106, #15, ( #9 ) ) ;
#172 = COORDINATED_UNIVERSAL_TIME_OFFSET ( 5, 0, .BEHIND. ) ;
#173 = CC_DESIGN_PERSON_AND_ORGANIZATION_ASSIGNMENT ( #119, #64, ( #58 ) ) ;
#174 = CARTESIAN_POINT ( 'NONE',  ( 0.0000000000000000000, 0.0000000000000000000, 0.0000000000000000000 ) ) ;
#175 = DIRECTION ( 'NONE',  ( -1.000000000000000000, 0.0000000000000000000, 0.0000000000000000000 ) ) ;
ENDSEC;
END-ISO-10303-21;
