ISO-10303-21;
HEADER;
FILE_DESCRIPTION (( 'STEP AP203' ),
    '1' );
FILE_NAME ('36993_37006.step',
    '2017-09-06T15:27:32',
    ( '' ),
    ( '' ),
    'SwSTEP 2.0',
    'SolidWorks 2016',
    '' );
FILE_SCHEMA (( 'CONFIG_CONTROL_DESIGN' ));
ENDSEC;

DATA;
#1 = DIRECTION ( 'NONE',  ( -0.0000000000000000000, -0.0000000000000000000, -1.000000000000000000 ) ) ;
#2 = ORIENTED_EDGE ( 'NONE', *, *, #76, .F. ) ;
#3 = DATE_AND_TIME ( #18, #7 ) ;
#4 = PRODUCT_RELATED_PRODUCT_CATEGORY ( 'detail', '', ( #153 ) ) ;
#5 = ADVANCED_FACE ( 'NONE', ( #56 ), #142, .T. ) ;
#6 = VECTOR ( 'NONE', #112, 1000.000000000000000 ) ;
#7 = LOCAL_TIME ( 11, 27, 32.00000000000000000, #15 ) ;
#8 = PERSON_AND_ORGANIZATION ( #156, #45 ) ;
#9 = COORDINATED_UNIVERSAL_TIME_OFFSET ( 5, 0, .BEHIND. ) ;
#10 = ORIENTED_EDGE ( 'NONE', *, *, #99, .F. ) ;
#11 = CC_DESIGN_PERSON_AND_ORGANIZATION_ASSIGNMENT ( #110, #106, ( #166 ) ) ;
#12 = APPROVAL_DATE_TIME ( #91, #149 ) ;
#13 = CARTESIAN_POINT ( 'NONE',  ( 0.0000000000000000000, 0.0000000000000000000, 1.500000000000000000 ) ) ;
#14 = APPROVAL_STATUS ( 'not_yet_approved' ) ;
#15 = COORDINATED_UNIVERSAL_TIME_OFFSET ( 5, 0, .BEHIND. ) ;
#16 = EDGE_LOOP ( 'NONE', ( #50, #167, #157, #2 ) ) ;
#17 = ADVANCED_FACE ( 'NONE', ( #125 ), #57, .T. ) ;
#18 = CALENDAR_DATE ( 2017, 6, 9 ) ;
#19 = CC_DESIGN_PERSON_AND_ORGANIZATION_ASSIGNMENT ( #115, #132, ( #38 ) ) ;
#20 = LOCAL_TIME ( 11, 27, 32.00000000000000000, #87 ) ;
#21 = ORIENTED_EDGE ( 'NONE', *, *, #71, .F. ) ;
#22 = CIRCLE ( 'NONE', #147, 12.50000000000000000 ) ;
#23 = LOCAL_TIME ( 11, 27, 32.00000000000000000, #122 ) ;
#24 = APPROVAL_PERSON_ORGANIZATION ( #32, #149, #174 ) ;
#25 = DIRECTION ( 'NONE',  ( 1.000000000000000000, 0.0000000000000000000, 0.0000000000000000000 ) ) ;
#26 = DIRECTION ( 'NONE',  ( 0.0000000000000000000, 0.0000000000000000000, 1.000000000000000000 ) ) ;
#27 = CARTESIAN_POINT ( 'NONE',  ( 0.0000000000000000000, 0.0000000000000000000, -1.500000000000000000 ) ) ;
#28 = AXIS2_PLACEMENT_3D ( 'NONE', #27, #93, #81 ) ;
#29 = DIRECTION ( 'NONE',  ( -1.000000000000000000, 0.0000000000000000000, 0.0000000000000000000 ) ) ;
#30 = CARTESIAN_POINT ( 'NONE',  ( 12.50000000000000000, 1.530808498934191500E-015, -1.500000000000000000 ) ) ;
#31 = DATE_TIME_ROLE ( 'creation_date' ) ;
#32 = PERSON_AND_ORGANIZATION ( #156, #45 ) ;
#33 = PRODUCT_DEFINITION_SHAPE ( 'NONE', 'NONE',  #166 ) ;
#34 = ORIENTED_EDGE ( 'NONE', *, *, #40, .F. ) ;
#35 = CARTESIAN_POINT ( 'NONE',  ( 0.0000000000000000000, 0.0000000000000000000, 1.500000000000000000 ) ) ;
#36 = DATE_AND_TIME ( #119, #23 ) ;
#37 = DATE_AND_TIME ( #145, #141 ) ;
#38 = PRODUCT_DEFINITION_FORMATION_WITH_SPECIFIED_SOURCE ( 'ANY', '', #153, .NOT_KNOWN. ) ;
#39 = CARTESIAN_POINT ( 'NONE',  ( 0.0000000000000000000, 0.0000000000000000000, 0.0000000000000000000 ) ) ;
#40 = EDGE_CURVE ( 'NONE', #173, #82, #63, .T. ) ;
#41 = APPROVAL_ROLE ( '' ) ;
#42 = CALENDAR_DATE ( 2017, 6, 9 ) ;
#43 = SHAPE_DEFINITION_REPRESENTATION ( #33, #58 ) ;
#44 = LINE ( 'NONE', #85, #98 ) ;
#45 = ORGANIZATION ( 'UNSPECIFIED', 'UNSPECIFIED', '' ) ;
#46 = SECURITY_CLASSIFICATION ( '', '', #105 ) ;
#47 = MANIFOLD_SOLID_BREP ( 'Boss-Extrude1', #131 ) ;
#48 = CIRCLE ( 'NONE', #89, 12.50000000000000000 ) ;
#49 = CARTESIAN_POINT ( 'NONE',  ( 0.0000000000000000000, 0.0000000000000000000, -1.500000000000000000 ) ) ;
#50 = ORIENTED_EDGE ( 'NONE', *, *, #62, .F. ) ;
#51 = CC_DESIGN_PERSON_AND_ORGANIZATION_ASSIGNMENT ( #151, #53, ( #46 ) ) ;
#52 = MECHANICAL_CONTEXT ( 'NONE', #73, 'mechanical' ) ;
#53 = PERSON_AND_ORGANIZATION_ROLE ( 'classification_officer' ) ;
#54 = APPROVAL_DATE_TIME ( #36, #169 ) ;
#55 =( LENGTH_UNIT ( ) NAMED_UNIT ( * ) SI_UNIT ( .MILLI., .METRE. ) );
#56 = FACE_OUTER_BOUND ( 'NONE', #129, .T. ) ;
#57 = CYLINDRICAL_SURFACE ( 'NONE', #168, 12.50000000000000000 ) ;
#58 = ADVANCED_BREP_SHAPE_REPRESENTATION ( '36993_37006', ( #47, #111 ), #84 ) ;
#59 = CC_DESIGN_DATE_AND_TIME_ASSIGNMENT ( #37, #31, ( #166 ) ) ;
#60 = FACE_OUTER_BOUND ( 'NONE', #139, .T. ) ;
#61 = PERSON_AND_ORGANIZATION ( #156, #45 ) ;
#62 = EDGE_CURVE ( 'NONE', #150, #114, #74, .T. ) ;
#63 = CIRCLE ( 'NONE', #127, 12.50000000000000000 ) ;
#64 = CARTESIAN_POINT ( 'NONE',  ( 0.0000000000000000000, 0.0000000000000000000, -1.500000000000000000 ) ) ;
#65 = DESIGN_CONTEXT ( 'detailed design', #96, 'design' ) ;
#66 = DIRECTION ( 'NONE',  ( 1.000000000000000000, 0.0000000000000000000, 0.0000000000000000000 ) ) ;
#67 = CC_DESIGN_DATE_AND_TIME_ASSIGNMENT ( #100, #165, ( #46 ) ) ;
#68 = PERSON_AND_ORGANIZATION_ROLE ( 'design_supplier' ) ;
#69 = FACE_OUTER_BOUND ( 'NONE', #88, .T. ) ;
#70 = DIRECTION ( 'NONE',  ( 1.000000000000000000, 0.0000000000000000000, 0.0000000000000000000 ) ) ;
#71 = EDGE_CURVE ( 'NONE', #82, #173, #22, .T. ) ;
#72 = DIRECTION ( 'NONE',  ( 0.0000000000000000000, 0.0000000000000000000, 1.000000000000000000 ) ) ;
#73 = APPLICATION_CONTEXT ( 'configuration controlled 3d designs of mechanical parts and assemblies' ) ;
#74 = CIRCLE ( 'NONE', #94, 12.50000000000000000 ) ;
#75 = AXIS2_PLACEMENT_3D ( 'NONE', #172, #159, #78 ) ;
#76 = EDGE_CURVE ( 'NONE', #114, #82, #152, .T. ) ;
#77 = APPROVAL_PERSON_ORGANIZATION ( #107, #170, #148 ) ;
#78 = DIRECTION ( 'NONE',  ( 1.000000000000000000, 0.0000000000000000000, -0.0000000000000000000 ) ) ;
#79 = DIRECTION ( 'NONE',  ( -0.0000000000000000000, -0.0000000000000000000, -1.000000000000000000 ) ) ;
#80 = PLANE ( 'NONE',  #28 ) ;
#81 = DIRECTION ( 'NONE',  ( 1.000000000000000000, 0.0000000000000000000, -0.0000000000000000000 ) ) ;
#82 = VERTEX_POINT ( 'NONE', #126 ) ;
#83 =( NAMED_UNIT ( * ) SI_UNIT ( $, .STERADIAN. ) SOLID_ANGLE_UNIT ( ) );
#84 =( GEOMETRIC_REPRESENTATION_CONTEXT ( 3 ) GLOBAL_UNCERTAINTY_ASSIGNED_CONTEXT ( ( #163 ) ) GLOBAL_UNIT_ASSIGNED_CONTEXT ( ( #55, #162, #83 ) ) REPRESENTATION_CONTEXT ( 'NONE', 'WORKASPACE' ) );
#85 = CARTESIAN_POINT ( 'NONE',  ( 12.50000000000000000, 1.530808498934191500E-015, 1.500000000000000000 ) ) ;
#86 = ADVANCED_FACE ( 'NONE', ( #60 ), #80, .F. ) ;
#87 = COORDINATED_UNIVERSAL_TIME_OFFSET ( 5, 0, .BEHIND. ) ;
#88 = EDGE_LOOP ( 'NONE', ( #118, #10, #90, #175 ) ) ;
#89 = AXIS2_PLACEMENT_3D ( 'NONE', #134, #116, #70 ) ;
#90 = ORIENTED_EDGE ( 'NONE', *, *, #76, .T. ) ;
#91 = DATE_AND_TIME ( #123, #20 ) ;
#92 = CC_DESIGN_APPROVAL ( #149, ( #166 ) ) ;
#93 = DIRECTION ( 'NONE',  ( 0.0000000000000000000, 0.0000000000000000000, 1.000000000000000000 ) ) ;
#94 = AXIS2_PLACEMENT_3D ( 'NONE', #35, #128, #66 ) ;
#95 = DIRECTION ( 'NONE',  ( -1.000000000000000000, 0.0000000000000000000, 0.0000000000000000000 ) ) ;
#96 = APPLICATION_CONTEXT ( 'configuration controlled 3d designs of mechanical parts and assemblies' ) ;
#97 = APPLICATION_PROTOCOL_DEFINITION ( 'international standard', 'config_control_design', 1994, #73 ) ;
#98 = VECTOR ( 'NONE', #1, 1000.000000000000000 ) ;
#99 = EDGE_CURVE ( 'NONE', #114, #150, #48, .T. ) ;
#100 = DATE_AND_TIME ( #42, #121 ) ;
#101 = CYLINDRICAL_SURFACE ( 'NONE', #155, 12.50000000000000000 ) ;
#102 = DIRECTION ( 'NONE',  ( -0.0000000000000000000, -0.0000000000000000000, -1.000000000000000000 ) ) ;
#103 = CC_DESIGN_PERSON_AND_ORGANIZATION_ASSIGNMENT ( #61, #146, ( #153 ) ) ;
#104 = APPROVAL_STATUS ( 'not_yet_approved' ) ;
#105 = SECURITY_CLASSIFICATION_LEVEL ( 'unclassified' ) ;
#106 = PERSON_AND_ORGANIZATION_ROLE ( 'creator' ) ;
#107 = PERSON_AND_ORGANIZATION ( #156, #45 ) ;
#108 = ADVANCED_FACE ( 'NONE', ( #69 ), #101, .T. ) ;
#109 = CC_DESIGN_APPROVAL ( #169, ( #46 ) ) ;
#110 = PERSON_AND_ORGANIZATION ( #156, #45 ) ;
#111 = AXIS2_PLACEMENT_3D ( 'NONE', #39, #72, #130 ) ;
#112 = DIRECTION ( 'NONE',  ( -0.0000000000000000000, -0.0000000000000000000, -1.000000000000000000 ) ) ;
#113 = CARTESIAN_POINT ( 'NONE',  ( 12.50000000000000000, 1.530808498934191500E-015, 1.500000000000000000 ) ) ;
#114 = VERTEX_POINT ( 'NONE', #164 ) ;
#115 = PERSON_AND_ORGANIZATION ( #156, #45 ) ;
#116 = DIRECTION ( 'NONE',  ( 0.0000000000000000000, 0.0000000000000000000, 1.000000000000000000 ) ) ;
#117 = APPROVAL_STATUS ( 'not_yet_approved' ) ;
#118 = ORIENTED_EDGE ( 'NONE', *, *, #144, .F. ) ;
#119 = CALENDAR_DATE ( 2017, 6, 9 ) ;
#120 = CC_DESIGN_SECURITY_CLASSIFICATION ( #46, ( #38 ) ) ;
#121 = LOCAL_TIME ( 11, 27, 32.00000000000000000, #136 ) ;
#122 = COORDINATED_UNIVERSAL_TIME_OFFSET ( 5, 0, .BEHIND. ) ;
#123 = CALENDAR_DATE ( 2017, 6, 9 ) ;
#124 = ORIENTED_EDGE ( 'NONE', *, *, #99, .T. ) ;
#125 = FACE_OUTER_BOUND ( 'NONE', #16, .T. ) ;
#126 = CARTESIAN_POINT ( 'NONE',  ( -12.50000000000000000, 0.0000000000000000000, -1.500000000000000000 ) ) ;
#127 = AXIS2_PLACEMENT_3D ( 'NONE', #49, #26, #140 ) ;
#128 = DIRECTION ( 'NONE',  ( 0.0000000000000000000, 0.0000000000000000000, 1.000000000000000000 ) ) ;
#129 = EDGE_LOOP ( 'NONE', ( #124, #138 ) ) ;
#130 = DIRECTION ( 'NONE',  ( 1.000000000000000000, 0.0000000000000000000, 0.0000000000000000000 ) ) ;
#131 = CLOSED_SHELL ( 'NONE', ( #17, #108, #5, #86 ) ) ;
#132 = PERSON_AND_ORGANIZATION_ROLE ( 'creator' ) ;
#133 = APPROVAL_PERSON_ORGANIZATION ( #8, #169, #41 ) ;
#134 = CARTESIAN_POINT ( 'NONE',  ( 0.0000000000000000000, 0.0000000000000000000, 1.500000000000000000 ) ) ;
#135 = APPLICATION_PROTOCOL_DEFINITION ( 'international standard', 'config_control_design', 1994, #96 ) ;
#136 = COORDINATED_UNIVERSAL_TIME_OFFSET ( 5, 0, .BEHIND. ) ;
#137 = CC_DESIGN_APPROVAL ( #170, ( #38 ) ) ;
#138 = ORIENTED_EDGE ( 'NONE', *, *, #62, .T. ) ;
#139 = EDGE_LOOP ( 'NONE', ( #21, #34 ) ) ;
#140 = DIRECTION ( 'NONE',  ( 1.000000000000000000, 0.0000000000000000000, 0.0000000000000000000 ) ) ;
#141 = LOCAL_TIME ( 11, 27, 32.00000000000000000, #9 ) ;
#142 = PLANE ( 'NONE',  #75 ) ;
#143 = CARTESIAN_POINT ( 'NONE',  ( -12.50000000000000000, 0.0000000000000000000, 1.500000000000000000 ) ) ;
#144 = EDGE_CURVE ( 'NONE', #150, #173, #44, .T. ) ;
#145 = CALENDAR_DATE ( 2017, 6, 9 ) ;
#146 = PERSON_AND_ORGANIZATION_ROLE ( 'design_owner' ) ;
#147 = AXIS2_PLACEMENT_3D ( 'NONE', #64, #171, #25 ) ;
#148 = APPROVAL_ROLE ( '' ) ;
#149 = APPROVAL ( #104, 'UNSPECIFIED' ) ;
#150 = VERTEX_POINT ( 'NONE', #113 ) ;
#151 = PERSON_AND_ORGANIZATION ( #156, #45 ) ;
#152 = LINE ( 'NONE', #143, #6 ) ;
#153 = PRODUCT ( '36993_37006', '36993_37006', '', ( #52 ) ) ;
#154 = APPROVAL_DATE_TIME ( #3, #170 ) ;
#155 = AXIS2_PLACEMENT_3D ( 'NONE', #13, #102, #29 ) ;
#156 = PERSON ( 'UNSPECIFIED', 'UNSPECIFIED', 'UNSPECIFIED', ('UNSPECIFIED'), ('UNSPECIFIED'), ('UNSPECIFIED') ) ;
#157 = ORIENTED_EDGE ( 'NONE', *, *, #40, .T. ) ;
#158 = PERSON_AND_ORGANIZATION ( #156, #45 ) ;
#159 = DIRECTION ( 'NONE',  ( 0.0000000000000000000, 0.0000000000000000000, 1.000000000000000000 ) ) ;
#160 = CC_DESIGN_PERSON_AND_ORGANIZATION_ASSIGNMENT ( #158, #68, ( #38 ) ) ;
#161 = CARTESIAN_POINT ( 'NONE',  ( 0.0000000000000000000, 0.0000000000000000000, 1.500000000000000000 ) ) ;
#162 =( NAMED_UNIT ( * ) PLANE_ANGLE_UNIT ( ) SI_UNIT ( $, .RADIAN. ) );
#163 = UNCERTAINTY_MEASURE_WITH_UNIT (LENGTH_MEASURE( 1.000000000000000100E-005 ), #55, 'distance_accuracy_value', 'NONE');
#164 = CARTESIAN_POINT ( 'NONE',  ( -12.50000000000000000, 0.0000000000000000000, 1.500000000000000000 ) ) ;
#165 = DATE_TIME_ROLE ( 'classification_date' ) ;
#166 = PRODUCT_DEFINITION ( 'UNKNOWN', '', #38, #65 ) ;
#167 = ORIENTED_EDGE ( 'NONE', *, *, #144, .T. ) ;
#168 = AXIS2_PLACEMENT_3D ( 'NONE', #161, #79, #95 ) ;
#169 = APPROVAL ( #117, 'UNSPECIFIED' ) ;
#170 = APPROVAL ( #14, 'UNSPECIFIED' ) ;
#171 = DIRECTION ( 'NONE',  ( 0.0000000000000000000, 0.0000000000000000000, 1.000000000000000000 ) ) ;
#172 = CARTESIAN_POINT ( 'NONE',  ( 0.0000000000000000000, 0.0000000000000000000, 1.500000000000000000 ) ) ;
#173 = VERTEX_POINT ( 'NONE', #30 ) ;
#174 = APPROVAL_ROLE ( '' ) ;
#175 = ORIENTED_EDGE ( 'NONE', *, *, #71, .T. ) ;
ENDSEC;
END-ISO-10303-21;
